PrimaNota.ru - самый крупный в мире бесплатный архив песенных текстов, аккордов, табулатур и нот


Judas Priest - Prophecy - текст песни, таба, бас-таба, видео

Регистрация Запомнить меня
Войти через:  Facebook Google Twitter Vk Yandex Mail.ru

Judas Priest - Prophecy - текст песни, таба, бас-таба, видео

Печатать
Просмотров: 615
Уроки эстрадного вокала в Санкт-Петербурге
judas priest - prophecy - nostradamus
i fucking love this song sad enuff im not good enuff to learn the solo by ear
but the main riff is so fucking evil so i thourght id share what ive learn't by ear
it is correct because all the notes ring with the guitar in the recording


THE MAIN RIFF AND CHORUS
E------------------------------------------------|
A------------------------------------------------|
D------------------------------------------------|
G--------------------------------4---3-----------|
B--2--2--2--4--5--2--2--2--2--2--2---1-----------|
E--0--0--0--2--3--0--0--0--0--0----0-------------|
                  *  *  *  *  *    *
VERSE
E------------------------------------------|
A------------------------------------------|
D------------------------------------------|
G------------------------------------------|
B--2--2--2--4--5--2--2--2--2--2--2--4--5---|
E--0--0--0--2--3--0--0--0--0--0--0--2--3---|

PRE CHORUS
  what i will say will terrify (repeat 4x)
E--------------------------------------|
A--------------------------------------|
D--------------------------------------|
G--4~~~~~~~~~~~~~-3~~~~----------------|
B--2~~~~~~~~~~~~~-1~~~~-2--------------|
E-----------------------0--------------|

     I AM NOSTRADAMUS!
E------------------------------------------------|
A------------------------------------------------|
D------------------------------------------------|
G--------------------------------4---3-----------|
B--2--2--2--4--5--2--2--2--2--2--2---1-----------|
E--0--0--0--2--3--0--0--0--0--0----0-------------|
                  *  *  *  *  *    *
Добавлено: 22.05.2012
Другие материалы по этой песне:

Страница создана 14.03.2012
http://primanota.ru/judas-priest/prophecy-chords.htm
Привет, Гость.
Предлагаем пройти революционный курс по гитаре.
Подарок от PrimaNota.Ru, забирай!