PrimaNota.ru - самый крупный в мире бесплатный архив песенных текстов, аккордов, табулатур и нот


Judas Priest - Painkiller - аккорды и текст, таба, бас-таба, драм-таба, видео

Регистрация Запомнить меня
Войти через:  Facebook Google Twitter Vk Yandex Mail.ru

Judas Priest - Painkiller - аккорды и текст, таба, бас-таба, драм-таба, видео

Печатать
Просмотров: 816
Авторы: Glenn Tipton, Rob Halford, Kenneth Downing

Painkiller
Judas Priest
		   Trilha 1

E||-------------------||---------------------------|--------------------------|
B||--5----------------||---------------------------|--------------------------|
G||--5----------------||*--------------------------|--------------------------|
D||--5----------------||*--------------------------|--------------------------|
A||-------------------||---7--------5--------7-----|-----8--------7-----------|
E||-------------------||------0--0-----0--0-----0--|--0-----0--0-----5--3--0--|


                                                   5x
--------------------------|------------------------||
--------------------------|------------------------||
--------------------------|-----------------------*||
--------------------------|-----------------------*||
--7--------5--------7-----|-----8--------8---------||
-----0--0-----0--0-----0--|--0-----0--0--6---------||



--------------------------------------|--------------------------------------|
--------------------------------------|--------------------------------------|
--------------------------------------|--------------------------------------|
--------------------------------------|--------------------------------------|
--0--0--0--0--0--0--0--0--0--0--0--0--|--0--0--0--0--0--0--0--0--0--0--0--0--|
--------------------------------------|--------------------------------------|



--------------------|--------------------|
--------------------|--------------------|
--------------------|--------------------|
--2--------7--------|--5--------4--------|
--0--------5--------|--3--------2--------|
--------------------|--------------------|



--------------------------------------|--------------------------------------|
--------------------------------------|--------------------------------------|
--------------------------------------|--------------------------------------|
--------------------------------------|--------------------------------------|
--0--0--0--0--0--0--0--0--0--0--0--0--|--0--0--0--0--0--0--0--0--0--0--0--0--|
--------------------------------------|--------------------------------------|



--------------------|--------------------||---------------------------|
--------------------|--------------------||---------------------------|
--------------------|--------------------||*--------------------------|
--2--------4--------|--5--------7--------||*--------------------------|
--0--------2--------|--3--------5--------||---7--------5--------7-----|
--------------------|--------------------||------0--0-----0--0-----0--|


                                                                              3x
--------------------------|--------------------------|------------------------||
--------------------------|--------------------------|------------------------||
--------------------------|--------------------------|-----------------------*||
--------------------------|--------------------------|-----------------------*||
-----8--------7-----------|--7--------5--------7-----|-----8--------8---------||
--0-----0--0-----5--3--0--|-----0--0-----0--0-----0--|--0-----0--0--6---------||



--------------------------------------|--------------------------------------|
--------------------------------------|--------------------------------------|
--------------------------------------|--------------------------------------|
--------------------------------------|--------------------------------------|
--0--0--0--0--0--0--0--0--0--0--0--0--|--0--0--0--0--0--0--0--0--0--0--0--0--|
--------------------------------------|--------------------------------------|



--------------------|--------------------|
--------------------|--------------------|
--------------------|--------------------|
--2--------7--------|--5--------4--------|
--0--------5--------|--3--------2--------|
--------------------|--------------------|



--------------------------------------|--------------------------------------|
--------------------------------------|--------------------------------------|
--------------------------------------|--------------------------------------|
--------------------------------------|--------------------------------------|
--0--0--0--0--0--0--0--0--0--0--0--0--|--0--0--0--0--0--0--0--0--0--0--0--0--|
--------------------------------------|--------------------------------------|



--------------------|--------------------||---------------------------|
--------------------|--------------------||---------------------------|
--------------------|--------------------||*--------------------------|
--2--------4--------|--5--------7--------||*--4--------5--------4-----|
--0--------2--------|--3--------5--------||------2--2-----2--2-----2--|
--------------------|--------------------||---------------------------|



--------------------------|--------------------------|
--------------------------|--------------------------|
-----5--------4-----------|--------------------------|
--------------------4--5--|--4--------5--------4-----|
--2-----2--2-----2--------|-----2--2-----2--2-----2--|
--------------------------|--------------------------|


                           3x
---------------------------||---------------------------------------|
---------------------------||---------------------------------------|
--5--------4--------------*||*--------------------------------------|
--------------------5-----*||*--------------------------------------|
-----3--3-----3--3-----2---||---------------------------------------|
---------------------------||---2--2--2--2--2--2--2--2--2--2--2--2--|



--------------------------------|--------------------------------------|
--------------------------------|--------------------------------------|
--------------------------------|--------------------------------------|
--------------------------------|--------------------------------------|
-----------------------5--------|--------------------------------------|
--2--2--2--2--2--2--2--3--------|--2--2--2--2--2--2--2--2--2--2--2--2--|



--------------------------------||---------------------------------------|
--------------------------------||---------------------------------------|
-------------------------------*||*--------------------------------------|
-------------------------------*||*--------------------------------------|
-----------------5----7---------||---------------------------------------|
--2--2--2--2--2--3----5---------||---5--5--5--5--5--5--5--5--5--5--5--5--|



--------------------------------|--------------------------------------|
--------------------------------|--------------------------------------|
--------------------------------|--------------------------------------|
--------------------------------|--------------------------------------|
-----------------------8--------|--------------------------------------|
--5--5--5--5--5--5--5--6--------|--5--5--5--5--5--5--5--5--5--5--5--5--|



---------------------------------||----------------------|
---------------------------------||----------------------|
--------------------------------*||----------------------|
--------------------------------*||----------------------|
-----------------8----10---------||--7------8------10----|
--5--5--5--5--5--6----8----------||--5------6------8-----|



----------------------|----------------------|----------------------|
----------------------|----------------------|----------------------|
----------------------|----------------------|----------------------|
----------------------|----------------------|----------------------|
----7------8----10----|--7------8------10----|----7------8----10----|
----5------6----8-----|--5------6------8-----|----5------6----8-----|



------------------------------------------|
------------------------------------------|
------------------------------------------|
------------------------------------------|
--7--8--10--7--8--10--7--8--10--7--8--10--|
--5--6--8---5--6--8---5--6--8---5--6--8---|



------------------------------------------|
------------------------------------------|
------------------------------------------|
------------------------------------------|
--7--8--10--7--8--10--7--8--10--7--8--10--|
--5--6--8---5--6--8---5--6--8---5--6--8---|



------------------------------------------|
------------------------------------------|
------------------------------------------|
------------------------------------------|
--7--8--10--7--8--10--7--8--10--7--8--10--|
--5--6--8---5--6--8---5--6--8---5--6--8---|



----5-9-5----------------14-17-14--------------------14-17-17-14----------------
--7-------7-----------14----------14--------------14-------------14-------------
------------6------14----------------14--------14-------------------14--------14
--------------7-------------------------16-----------------------------16-------
----------------9--------------------------16-----------------------------16----
--------------------------------------------------------------------------------



------------------------|--------------------------|------------------|
------------------------|--------------------------|------------------|
------------------------|--------------------------|------------------|
------------------------|--------------------------|------------------|
--16------------17--16--|------17--16------14--16--|------------------|
------------------------|--------------------------|------------------|



-------------------|----------------------|------------------------|
-------------------|--14------------14----|------14--------12--14--|
-------------------|----------------------|------------------------|
--0-dive-with-whammy----------------------|------------------------|
-------------------|----------------------|------------------------|
-------------------|----------------------|------------------------|



------------------|--------------------|--------------------------|
------------------|--------------------|--------------------------|
------------------|--6--4--------------|-----------4--------------|
------------------|--------------------|--7--4--4-----4--4--7--4--|
------------------|--------------------|--------------------------|
------------------|--------------------|--------------------------|



--------------------------|--------------------------|
--------------------------|--------------------------|
-----------------------4--|--6--------7--------6-----|
--4--4--4--4-----4--7-----|-----4--4-----4--4-----4--|
--------------8-----------|--------------------------|
--------------------------|--------------------------|



--------------------------|--------------------------|
--------------------------|--------------------------|
-----4--------------------|-----------4--------------|
--4-----4--4--7--4--6--4--|--7--4--4-----4--4--7--4--|
--------------------------|--------------------------|
--------------------------|--------------------------|



--------------------------|-----------------------------|
--------------------------|-----------------------------|
-----------------------4--|--6--------7--------6------4-|
--4--4--4--4-----4--7-----|-----4--4-----4--4-----4-7---|
--------------8-----------|-----------------------------|
--------------------------|-----------------------------|



------------------17--------|--15b-----------14--17--|--14------------------|
---------------14-----------|------------------------|------------------14--|
--6---------14--------------|------------------------|----------------------|
---------14-----------------|------------------------|----------------------|
----------------------------|------------------------|----------------------|
----------------------------|------------------------|----------------------|



--14----------14----------|--13------------------|------9----------12----------|
--14------14--14------14--|----------------------|--10-----10--12----------12--|
--------------------------|------------------11--|-----------------------------|
--------------------------|----------------------|-----------------------------|
--------------------------|----------------------|-----------------------------|
--------------------------|----------------------|-----------------------------|



--14--14----------14--14--13--14--14--14--|
----------12--14--------------------------|
------------------------------------------|
------------------------------------------|
------------------------------------------|
------------------------------------------|



--14--14------14--14----------------------|--------------------|
----------14----------14--14------14------|--------------------|
------------------------------14-----14---|--------------------|
------------------------------------------|--16----------------|
------------------------------------------|--------------------|
------------------------------------------|--------------------|



--------------------|------------23b-------|--21------------12----|
--------------------|--14------------------|----------------------|
--------------------|----------------------|----------------------|
--------------------|----------------------|----------------------|
--16----------------|----------------------|----------------------|
--------------------|----------------------|----------------------|



--19----------------|----------12--14------12--14--16-17-|
--------------------|--14--16----------16----------------|
--------------------|------------------------------------|
--------------------|------------------------------------|
--------------------|------------------------------------|
--------------------|------------------------------------|



--16--14--12--14----12-13-14--12----------16--|
-----------------16---------------16--14------|
----------------------------------------------|
----------------------------------------------|
----------------------------------------------|
----------------------------------------------|



------16h-21h-16h-14h-16------16h-21h-16h-14h-16--|
--14----------------------14----------------------|
--------------------------------------------------|
--------------------------------------------------|
--------------------------------------------------|
--------------------------------------------------|



--------------16h19h-16----------------|--23b---------------|
-----------17------------17------------|--------------------|
--------16-------------------16--------|--------------------|
-----18--------------------------------|--------------------|
--19-----------------------------------|--------------------|
---------------------------------------|--------------------|



--21----------------|----21--19----16----12--------|
--------------------|------------------------16----|
--------------------|------------------------------|
--------------------|------------------------------|
--------------------|------------------------------|
--------------------|------------------------------|



----------------------------|--------------------------------|
----------------------------|--------------------------------|
--13------------------------|--------------------------------|
--------13------------------|--------------------------------|
--------------16------------|-------------------9-------9-11-|
--------------------16---12-|----9------9-11-12---11-12------|



---------------------------------------------|
-------------------------------------------9-|
------------------------------9-11----9-11---|
------------------------11-13------13--------|
--9-10-11-12-11-10-9-------------------------|
---------------------12----------------------|



--------------------------------12-14----12-14-16-|
--------------------------14-16-------16----------|
-----12-13-14-13-12-------------------------------|
--16----------------16-14-------------------------|
--------------------------------------------------|
--------------------------------------------------|



--14-15-16-17-16-15-14-12-19-19-16-16-21-21-21--|
------------------------------------------------|
------------------------------------------------|
------------------------------------------------|
------------------------------------------------|
------------------------------------------------|



------12h-16h-14h-16h-21h-16h-14h-16h-12----------|
--14--------------------------------------14--14--|
--------------------------------------------------|
--------------------------------------------------|
--------------------------------------------------|
--------------------------------------------------|



------12h-16h-14h-16h-21h-16h-14h-16h-12----------|
--14--------------------------------------14--14--|
--------------------------------------------------|
--------------------------------------------------|
--------------------------------------------------|
--------------------------------------------------|



------------------------------------------------|-------------------|
------------------------------------------------|-------------------|
------9h-13h-11h-13h-18h-13h-11h-13h-9----------|-------------------|
--11------------------------------------11--11--|-------------------|
------------------------------------------------|--4----------------|
------------------------------------------------|-------------------|



------------------------|----------------------------------|
------------------------|----------------------------------|
--11b-------------------|--11----------11--12--11----------|
----------------14--11--|------11--14--------------14--11--|
------------------------|----------------------------------|
------------------------|----------------------------------|



--16--12--15--14--12--16--14--12--11----|------------------|
----------------------------------------|------------------|
----------------------------------------|------------------|
----------------------------------------|------------------|
----------------------------------------|------------------|
----------------------------------------|------------------|



--------------------|----------11b-------|--11--------12b-------|
--14----------------|--------------------|----------------------|
--------------------|--------------------|----------------------|
--------------------|--------------------|----------------------|
--------------------|--------------------|----------------------|
--------------------|--------------------|----------------------|



--12------------------|----------------------12--|--14------12--14----------|
------------14b-------|--14----------14--16------|------16------------------|
----------------------|--------------------------|--------------------------|
----------------------|--------------------------|--------------------------|
----------------------|--------------------------|--------------------------|
----------------------|--------------------------|--------------------------|



--------------------|--------------------||---------------------------|
--13----------------|--13b---------------||---------------------------|
--------------------|--------------------||*-----------6--------------|
--------------------|--------------------||*--9--6--6-----6--6--9--6--|
--------------------|--------------------||---------------------------|
--------------------|--------------------||---------------------------|



--------------------------|--------------------------|
--------------------------|--------------------------|
-----------------------6--|--8--------9--------8-----|
--6--6--6--6-----6--9-----|-----6--6-----6--6-----6--|
--------------9-----------|--------------------------|
--------------------------|--------------------------|



-------------------------||---------------------------------------------------|
-------------------------||---------------------------------------------------|
-----6------------------*||---------------------------------------------------|
--6-----6--6-------7----*||---------------------------------------------11-13-|
--------------9----------||--4------------------4--3----------11-11-14--------|
-------------------------||-----11--12--12--11-------11-12-14-----------------|



--------------------------------------------------|
--------------------------------------------------|
------------------------------------------11--13--|
--13--11----------------------11--13--14----------|
----------14--12--11------14----------------------|
----------------------14--------------------------|



----------11--12--14--16--19-18-16-18-19-18-16-18-|
--12--14------------------------------------------|
--------------------------------------------------|
--------------------------------------------------|
--------------------------------------------------|
--------------------------------------------------|



--19-18-16-18-19-18-16-18-21--------||---------------------------|
------------------------------------||---------------------------|
------------------------------------||*--------------------------|
------------------------------------||*--------------------------|
------------------------------------||---7--------5--------7-----|
------------------------------------||------0--0-----0--0-----0--|


                                                                              3x
--------------------------|--------------------------|------------------------||
--------------------------|--------------------------|------------------------||
--------------------------|--------------------------|-----------------------*||
--------------------------|--------------------------|-----------------------*||
-----8--------7-----------|--7--------5--------7-----|-----8--------8---------||
--0-----0--0-----5--3--0--|-----0--0-----0--0-----0--|--0-----0--0--6---------||



--------------------------------------|--------------------------------------|
--------------------------------------|--------------------------------------|
--------------------------------------|--------------------------------------|
--------------------------------------|--------------------------------------|
--0--0--0--0--0--0--0--0--0--0--0--0--|--0--0--0--0--0--0--0--0--0--0--0--0--|
--------------------------------------|--------------------------------------|



--------------------|--------------------|
--------------------|--------------------|
--------------------|--------------------|
--2--------7--------|--5--------4--------|
--0--------5--------|--3--------2--------|
--------------------|--------------------|



--------------------------------------|--------------------------------------|
--------------------------------------|--------------------------------------|
--------------------------------------|--------------------------------------|
--------------------------------------|--------------------------------------|
--0--0--0--0--0--0--0--0--0--0--0--0--|--0--0--0--0--0--0--0--0--0--0--0--0--|
--------------------------------------|--------------------------------------|



--------------------|--------------------|
--------------------|--------------------|
--------------------|--------------------|
--2--------4--------|--5--------7--------|
--0--------2--------|--3--------5--------|
--------------------|--------------------|



--------------------------------------|--------------------------------------|
--------------------------------------|--------------------------------------|
--------------------------------------|--------------------------------------|
--------------------------------------|--------------------------------------|
--2--2--2--2--2--2--2--2--2--2--2--2--|--2--2--2--2--2--2--2--2--2--2--2--2--|
--------------------------------------|--------------------------------------|



--------------------|--------------------|
--------------------|--------------------|
--------------------|--------------------|
--4--------9--------|--7--------6--------|
--2--------7--------|--5--------4--------|
--------------------|--------------------|



--------------------------------------|--------------------------------------|
--------------------------------------|--------------------------------------|
--------------------------------------|--------------------------------------|
--------------------------------------|--------------------------------------|
--2--2--2--2--2--2--2--2--2--2--2--2--|--2--2--2--2--2--2--2--2--2--2--2--2--|
--------------------------------------|--------------------------------------|



--------------------|--------------------||---------------------------|
--------------------|--------------------||---------------------------|
--------------------|-----------4--------||*--------------------------|
--4--------6--------|--7--------2--------||*--4--------5--------4-----|
--2--------4--------|--5-----------------||------2--2-----2--2-----2--|
--------------------|--------------------||---------------------------|



--------------------------|--------------------------|
--------------------------|--------------------------|
-----5--------4-----------|--------------------------|
--------------------4--5--|--4--------5--------4-----|
--2-----2--2-----2--------|-----2--2-----2--2-----2--|
--------------------------|--------------------------|



---------------------------||----------------------|----------------------|
---------------------------||----------------------|----------------------|
--5--------4--------------*||----------------------|----------------------|
--------------------5-----*||----------------------|----------------------|
-----3--3-----3--3-----2---||--7------8------10----|----7------8----10----|
---------------------------||--5------6------8-----|----5------6----8-----|



----------------------|----------------------|
----------------------|----------------------|
----------------------|----------------------|
----------------------|----------------------|
--7------8------10----|----7------8----10----|
--5------6------8-----|----5------6----8-----|



------------------------------------------|
------------------------------------------|
------------------------------------------|
------------------------------------------|
--7--8--10--7--8--10--7--8--10--7--8--10--|
--5--6--8---5--6--8---5--6--8---5--6--8---|



------------------------------------------|
------------------------------------------|
------------------------------------------|
------------------------------------------|
--7--8--10--7--8--10--7--8--10--7--8--10--|
--5--6--8---5--6--8---5--6--8---5--6--8---|



------------------------------------------||---------------------------|
------------------------------------------||---------------------------|
------------------------------------------||*--------------------------|
------------------------------------------||*--------------------------|
--7--8--10--7--8--10--7--8--10--7--8--10--||---7--------5--------7-----|
--5--6--8---5--6--8---5--6--8---5--6--8---||------0--0-----0--0-----0--|


                                                                              3x
--------------------------|--------------------------|------------------------||
--------------------------|--------------------------|------------------------||
--------------------------|--------------------------|-----------------------*||
--------------------------|--------------------------|-----------------------*||
-----8--------7-----------|--7--------5--------7-----|-----8--------8---------||
--0-----0--0-----5--3--0--|-----0--0-----0--0-----0--|--0-----0--0--6---------||



--12------12------12--9--|--12----------12----14b---|
-------------------------|--------14----------------|
-------------------------|--------------------------|
-------------------------|--------------------------|
-------------------------|--------------------------|
-------------------------|--------------------------|



------17--16--14--12----------------------|------------------------------------|
----------------------15--14--------------|------------------------------------|
------------------------------15--14--13--|------------------------------------|
------------------------------------------|--16--14--12------------------------|
------------------------------------------|--------------16--14--12------------|
------------------------------------------|--------------------------14--------|



-------------------------|-----------------------|
-------------------------|-----------------------|
--------------4----------|-----4--4--4-----------|
--4--4--7--4-------4--4--|--7-----------7--------|
-------------------------|-----------------------|
-------------------------|-----------------------|



------------------10----------------------|--16-14-12----10----------12b-------|
---------------------14-12----10----------|-----------12-----14--12------------|
--12-11--------------------11-----13--11--|------------------------------------|
------------11----------------------------|------------------------------------|
---------14-------------------------------|------------------------------------|
------------------------------------------|------------------------------------|



------------------------|--------------------------|
------------------------|--------------------------|
------------------------|--9b---9------9--9b-------|
------------------------|----------11--------------|
--7--7--7--7----7--7----|--------------------------|
------------------------|--------------------------|



----------------------12--17--12------------------|--------------------------|
------------------14--------------14--------------|--------------------------|
--------------14----------------------14----------|--------------------------|
----------14------------------------------14------|--------------------------|
------16--------------------------------------16--|--12--14--14--12----------|
--17----------------------------------------------|--12--14--14--12----------|



--------------------------|--------------------------|
--------------------------|--------------------------|
--------------------------|--------------------------|
--7--------9--------7-----|-----9--------7-----9-----|
--7--------9--------7-----|-----9--------7-----9-----|
-----0--0-----0--0-----0--|--0-----0--0-----0-----0--|



--------------------------|------------------------|------------------|
--------------------------|------------------------|------------------|
--------------------------|------------------------|------------------|
--------------------------|--------------9----9----|------------------|
--7--7--7--7--7--7--7--7--|--7--7--7--7--7----7----|------------------|
--------------------------|------------------------|------------------|



------------------|------------------|------------------|-------------------|
------------------|------------------|------------------|-------------------|
------------------|------------------|------------------|-------------------|
------------------|------------------|------------------|-------------------|
------------------|------------------|------------------|--4----------------|
------------------|------------------|------------------|--2----------------|



-------------------|--------------------|--------------------|
-------------------|--------------------|--------------------|
-------------------|--------------------|--------------------|
-------------------|--------------------|--------------------|
--4----------------|--4--------9--------|--7--------6--------|
--2----------------|--2--------7--------|-----------4--------|



------------------|-------------------|------------------|------------------|
------------------|-------------------|------------------|------------------|
------------------|-------------------|------------------|------------------|
------------------|-------------------|------------------|------------------|
------------------|--5----------------|------------------|------------------|
------------------|--3----------------|------------------|------------------|



------------------|------------------|------------------|------------------|
------------------|------------------|------------------|------------------|
------------------|------------------|------------------|------------------|
------------------|------------------|------------------|------------------|
------------------|------------------|------------------|------------------|
------------------|------------------|------------------|------------------|



------------------|------------------|------------------|------------------|
------------------|------------------|------------------|------------------|
------------------|------------------|------------------|------------------|
------------------|------------------|------------------|------------------|
------------------|------------------|------------------|------------------|
------------------|------------------|------------------|------------------|



-------------------||
-------------------||
-------------------||
-------------------||
--4----------------||
--2----------------||     
Добавлено: 21.07.2013
Другие материалы по этой песне:

Страница создана 27.02.2012
http://primanota.ru/judas-priest/painkiller-chords.htm
Привет, Гость.
Предлагаем пройти революционный курс по гитаре.
Подарок от PrimaNota.Ru, забирай!