PrimaNota.ru - самый крупный в мире бесплатный архив песенных текстов, аккордов, табулатур и нот


Judas Priest - Metal Gods - текст песни, таба, бас-таба, видео

Регистрация Запомнить меня
Войти через:  Facebook Google Twitter Vk Yandex Mail.ru

Judas Priest - Metal Gods - текст песни, таба, бас-таба, видео

Печатать
Просмотров: 442
Авторы: Glenn Tipton, Rob Halford, Kenneth Downing

Band - Judas Priest
Song - Metal Gods

Tuning: standard
Key:
/ - slide up
\ - slide down
h - hammer-on
p - pull-off
~ - vibrato
b - bend
x - mute note

    E                 D           E                                    D           E  
e|-----------------------------|------------------|-----------------------------|-----|
B|-----------------------------|------------------|-----------------------------|-----|
G|--9---9-9--9--9-9---7-7-7-7--|--9---9-9--9--9~--|--9---9-9--9--9-9---7-7-7-7--|--9--|
D|--9---9-9--9--9-9---7-7-7-7--|--9---9-9--9--9~--|--9---9-9--9--9-9---7-7-7-7--|--9--|
A|--7---7-7--7--7-7---5-5-5-5--|--7---7-7--7--7~--|--7---7-7--7--7-7---5-5-5-5--|--7--|
E|-----------------------------|------------------|-----------------------------|-----|

                      D           E                                    D           E  
e|-----------------------------|------------------|-----------------------------|-----|
B|-----------------------------|------------------|-----------------------------|-----|
G|--9---9-9--9--9-9---7-7-7-7--|--9---9-9--9--9~--|--9---9-9--9--9-9---7-7-7-7--|--9--|
D|--9---9-9--9--9-9---7-7-7-7--|--9---9-9--9--9~--|--9---9-9--9--9-9---7-7-7-7--|--9--|
A|--7---7-7--7--7-7---5-5-5-5--|--7---7-7--7--7~--|--7---7-7--7--7-7---5-5-5-5--|--7--|
E|-----------------------------|------------------|-----------------------------|-----|

                      D           E                                    D        
e|-----------------------------|------------------|-----------------------------|
B|-----------------------------|------------------|-----------------------------|
G|--9---9-9--9--9-9---7-7-7-7--|--9---9-9--9--9~--|--9---9-9--9--9-9---7-7-7-7--|
D|--9---9-9--9--9-9---7-7-7-7--|--9---9-9--9--9~--|--9---9-9--9--9-9---7-7-7-7--|
A|--7---7-7--7--7-7---5-5-5-5--|--7---7-7--7--7~--|--7---7-7--7--7-7---5-5-5-5--|
E|-----------------------------|------------------|-----------------------------|

   E   F#m                                     B     F#m
e|------------||----------------------------------|-----------------------------|
B|------------||----------------------------------|-----------------------------|
G|--9---------||-------------------------------4--|-----------------------------|
D|--9---2-2-4-||--------4----------4-----------4--|--\4----------4--------------|
A|--7---2-2-4-||--------4----------4-----------2--|--\4----------4--------------|
E|------0-0-2-||--x-x-x-2----x-x-x-2----x-x--x----|--\2---x-x-x--2--x-x-x--x-x--|

                                                                       B
e|----------------------|-------------------------|-----------------------------|
B|----------------------|-------------------------|-----------------------------|
G|----------------------|-------------------------|--------------------4--------|
D|--4----4---4-2-2---4--|--------4----------------|--4-----------------4--------|
A|--4----4---4-2-2---4--|--------4----------------|--4-----------------2--------|
E|--2----2---2-0-0---2--|--x-x-x-2--x-x-x--x-x----|--2-----x---x----x-----------|

   F#m                                       E     F#m        E     G        D
e|-----------------------------|----------------|----------------|--------------|
B|-----------------------------|----------------|----------------|--------------|
G|-----------------------------|----------------|----------------|-----------7--|
D|--\4----------4--------------|--\4--4--4-4-2--|--\4--4--4-4-2--|--5----5---7--|
A|--\4----------4--------------|--\4--4--4-4-2--|--\4--4--4-4-2--|--5----5---5--|
E|--\2---x-x-x--2--x-x-x--x-x--|--\2--2--2-2-0--|--\2--2--2-2-0--|--3----3------|

    G           D    F#m        E F#m         F#m              E       
e|-----------------|------------------------|-------------------------|
B|-----------------|------------------------|-------------------------|
G|--------------7--|--4b--4--------1---2----|----------2h4p2---2h4/6--|
D|--5--5--------7--|---------4--2--------4~-|------2h4-------4--------|
A|--5--5--------5--|------------------------|--2h4--------------------|
E|--3--3--3--5-----|------------------------|-------------------------|

 F#m                         E  F#m                                E
e|----------------------------|------14---------------------------17b-|
B|--------2-2-5----2----------|--~14----17-17b--17-14-17-14-14-14-----|
G|--2h4-4-------2h4--4-2h4p2--|---------------------------------------|
D|----------------------------|---------------------------------------|
A|----------------------------|---------------------------------------|
E|----------------------------|---------------------------------------|

   F#m                            E   F#m          E           F#m   E
e|--17-14-17p14-----14--------------|--12--------------------|--------|
B|--------------17-----17b--17-12b--|------10--9--10p9h---9--|--12~~~-|
G|----------------------------------|------------------11----|--------|
D|----------------------------------|------------------------|--------|
A|----------------------------------|------------------------|--------|
E|----------------------------------|------------------------|--------|

    G             D     G             D    F#m           E
e|-------------------|-------------------|----------------------|
B|-------------------|-------------------|----------------------|
G|-------------------|----------------7--|----------------------|
D|--5---------5---7--|--5----5--------7--|--4--4--4--4---2-(2)--|
A|--5---------5---7--|--5----5--------5--|--4--4--4--4---2-(2)--|
E|--3---------3---5--|--3----3--3--5-----|--2--2--2--2---0-(0)--|

   F#m                                   B    F#m
e|---------------------|--------------------|----------------------------|
B|---------------------|--------------------|----------------------------|
G|---------------------|-----------------4--|----------------------------|
D|--4--------4---------|--4--------------4--|--4---------4---------------|
A|--4--------4---------|--4--------------2--|--4---------4---------------|
E|--2--x-x-x-2--x-x-x--|--2--x-x-x-x-x-x----|--2---x-x-x-2--x-x-x-x-x-x--|

               E   F#m                        
e|--------------------------------------------|-------------|
B|--------------------------------------------|-------------|
G|--------------------------------------------|-------------|
D|--4----------2----4---------4---------------|--4---4-4-2--|
A|--4----------2----4---------4---------------|--4---4-4-2--|
E|--2--x-x-x-x-0----2---x-x-x-2--x-x-x-x-x-x--|--2---2-2-0--|
Добавлено: 11.05.2012
Другие материалы по этой песне:

Страница создана 15.04.2012
http://primanota.ru/judas-priest/metal-gods-chords.htm
Привет, Гость.
Предлагаем пройти революционный курс по гитаре.
Подарок от PrimaNota.Ru, забирай!