PrimaNota.ru - самый крупный в мире бесплатный архив песенных текстов, аккордов, табулатур и нот


Judas Priest - Hell Bent For Leathere - таба, видео

Регистрация Запомнить меня
Войти через:  Facebook Google Twitter Vk Yandex Mail.ru

Judas Priest - Hell Bent For Leathere - таба, видео

Печатать
Просмотров: 130
Hell Bent For Leather Solo Tab by Judas Priest
1978 on the Album Killing Machine


^^= Vibrato Bar
fb= Full Bend
hb= Half Bend
br = Bend Release
Note; Pull offs and hammer ons are used during the whole solo

E-----12--5--8--12--5--8--12--5---8--12--5--8--12--------------|
B--------------------------------------------------------------|
G--------------------------------------------------------------|
D--------------------------------------------------------------|
A--------------------------------------------------------------|
E--------------------------------------------------------------|

E ----12--5--8--12--5--8--12--5---8--12--5--8--12--------------|
B--------------------------------------------------------------|
G--------------------------------------------------------------|
D--------------------------------------------------------------|
A--------------------------------------------------------------|
E--------------------------------------------------------------|

E12--5--7--12---5---7--12---4--7---12---4--7--12---------------|
B--------------------------------------------------------------|
G--------------------------------------------------------------|
D--------------------------------------------------------------|
A--------------------------------------------------------------|
E--------------------------------------------------------------|

E--4---7---12---4---7---12---3---7--12—3-7---------------------|
B--------------------------------------------------------------|
G--------------------------------------------------------------|
D--------------------------------------------------------------|
A--------------------------------------------------------------|
E--------------------------------------------------------------|

E---12--3--7--12---3---7---10---3---5--10--3--5----------------|
B--------------------------------------------------------------|
G--------------------------------------------------------------|
D--------------------------------------------------------------|
A--------------------------------------------------------------|
E--------------------------------------------------------------|

E--10--3---5---10---3--5---10--2--5--10--2—10 2^^--------------|
B--------------------------------------------------------------|
G--------------------------------------------------------------|
D--------------------------------------------------------------|
A--------------------------------------------------------------|
E--------------------------------------------------------------|


E----17------------------ -----------------------17------------|
B------------20fb ----------20fb-------------------------------|
G----------------------------20-fb --20-br-----------20fb------|
D--------------------------------------------------------------|
A--------------------------------------------------------------|
E--------------------------------------------------------------|

E----20---19---17----------17----------------------------------|
B----------------------19-------19hb--17--20---17--20----------|
G--------------------------------------------------------------|
D--------------------------------------------------------------|
A--------------------------------------------------------------|
E--------------------------------------------------------------|

E--------------------------------------------------------------|
B-----20-------------------------------------------------------|
G------------------19--19--20--20---17-^^----------------------|
D--------------------------------------------------------------|
A--------------------------------------------------------------|
E--------------------------------------------------------------|

E--------------------------------------------------------------|
B---13----------13---------------------------------------------|
G--------13hb--------13hb--------------------------------------|
D--------------------------------------------------------------|
A--------------------------------------------------------------|
E--------------------------------------------------------------|

E--------------------------------------------------------------|
B---7--8--7----7---------------5--4--3-------------------------|
G--------------9---9-7---------------------5--2--2--5--4-------|
D------------------------10------------------------------------|
A--------------------------------------------------------------|
E--------------------------------------------------------------|

E--------------------------------------------------------------|
B--------------------------------------------------------------|
G----5--4--2--0--2--0------------------------------------------|
D--------------------------4--5--4--2--4------2----------------|
A---------------------------------------------5----------------|
E--------------------------------------------------------------|

E--------------------------------------------------------------|
B--------------------------------------------------------------|
G--------------------------------------------------------------|
D--------------------------------------------------------------|
A----3-----4----3---2---3--------------------------------------|
E--------------------------------------------------------------|
Добавлено: 17.03.2012
Другие материалы по этой песне:
  • Аккорды и текст

Страница создана 17.03.2012
http://primanota.ru/judas-priest/hell-bent-for-leathere-chords.htm
Привет, Гость.
Предлагаем пройти революционный курс по гитаре.
Подарок от PrimaNota.Ru, забирай!