PrimaNota.ru - самый крупный в мире бесплатный архив песенных текстов, аккордов, табулатур и нот


Judas Priest - Hell Bent For Leather - текст песни, таба, бас-таба, видео

Регистрация Запомнить меня
Войти через:  Facebook Google Twitter Vk Yandex Mail.ru

Judas Priest - Hell Bent For Leather - текст песни, таба, бас-таба, видео

Печатать
Просмотров: 253
Авторы музыки: Glenn Tipton
Авторы текста: Glenn Tipton
|-12----8-12----8-8----8-8----8-8----8-8----8-8----8-8----8--|
|----10------10-----10-----10-----10-----10-----10-----10----|
|------------------------------------------------------------|
|------------------------------------------------------------|
|------------------------------------------------------------|
|------------------------------------------------------------|


|-8----7-12-------7----7-7----7-7---7-7-12----7-7---7-7---7-7---7-7-|
|---10------10-12---10-----10-----9--------9------9-----9-----8-----|
|-------------------------------------------------------------------|
|-------------------------------------------------------------------|
|-------------------------------------------------------------------|
|-------------------------------------------------------------------|


|-12---7-7---7-7---7-7---7-7---7-7---7-7---7-7---5-12---5-5---5-5---|
|----8-----8-----8-----8-----8-----8-----8-----7------7-----7-----7-|
|-------------------------------------------------------------------|
|-------------------------------------------------------------------|
|-------------------------------------------------------------------|
|-------------------------------------------------------------------|


|-5-5--------10---5-------|
|-----8p7-10----7-----7\--|
|-------------------6-----|
|-------------------------|
|-------------------------|
|-------------------------|

          ~~~~    ~~~~         ~~~~  ~~~~                 ~~~~
|-17-15-15b---17-------17-15-15b---17fb----15b-15p12-15b-15----|
|----------------17--------------------------------------------|
|--------------------------------------------------------------|
|--------------------------------------------------------------|
|--------------------------------------------------------------|
|--------------------------------------------------------------|

          ~~~                      ~~~~~~~              ~~~~~~~~~~~
|----15------15----1515---------------------------------------------|
|-17----17------17------151515-17-14-------13------13--12-----------|
|----------------------------------------------14-------------------|
|-------------------------------------------------------------------|
|-------------------------------------------------------------------|
|-------------------------------------------------------------------|

    h     h     ~~~~                     h     h
|--------------------------------------------------------|
|-6-8p6\5-6p5\3------5p4p3-------------------------------|
|---------------5----------5p4---5p4---------------------|
|------------------------------7-----7-5-7p5\4-5p4\2-3p2-|
|--------------------------------------------------------|
|--------------------------------------------------------|

    h            ~~~~~~~~~~~~~~~~~~~~~
|---------------------------------------|
|---------------------------------------|
|---------------------------------------|
|---------------2-----------------------|
|-3-5p3\2-3--5--------------------------|
|---------------------------------------|
Добавлено: 24.06.2012
Другие материалы по этой песне:

Страница создана 29.02.2012
http://primanota.ru/judas-priest/hell-bent-for-leather-chords.htm
Привет, Гость.
Предлагаем пройти революционный курс по гитаре.
Подарок от PrimaNota.Ru, забирай!