PrimaNota.ru - самый крупный в мире бесплатный архив песенных текстов, аккордов, табулатур и нот


Judas Priest - Caviar And Meths - таба, видео

Регистрация Запомнить меня
Войти через:  Facebook Google Twitter Vk Yandex Mail.ru

Judas Priest - Caviar And Meths - таба, видео

Печатать
Просмотров: 189
Авторы: Al Atkins, Ian Hill, Kenneth Downing

Caviar and Meths by Judas Priest
Transcribed by Lysander

If you have any questions let me know please at schmg2@yahoo.gr
Feel free to tell me whether there is a mistake or anything wrong, ok ?

Guitar 1: Play this again and again until the end of the song.
|----------5--------|---------5------|--------5-------|-----------5---------|
|------------5----5-|-----------5---5|----------5----6|-------------5-----6-|
|--------------5----|-------------5--|------------4---|---------------4-----|
|-----5-------------|----5-----------|---4------------|----4----------------|
|--7----7-----------|-7----7---------|-5---5----------|--5---5--------------|
|-------------------|----------------|----------------|---------------------|

|-----------5--------|----------5------|--------5-------|---------5---------|
|-------------5----5-|------------5---5|----------5----6|-----------5-----6-|
|---------------5----|--------------5--|------------4---|-------------4-----|
|-----5--------------|-----5-----------|---4------------|----4--------------|
|--7----7------------|--7----7---------|-5---5----------|--5---5------------|
|--------------------|-----------------|----------------|-------------------|

Guitar 2: Enter at 0:36.
|--------------------------------|----------------------------------|
|--------------------------------|----------------------------------|
|----------5---4h5p4-------------|----------5----4h5p4--------------|
|--------------------------5-----|-----------------------------5----|
|---5----------------------------|---7------------------------------|
|---7----------------------------|---5------------------------------|

e|---------------------------------------------------------------------|
B|---------------------------------------------------------------------|
G|-----------5----4h5p4--------5p4------5p4-----5p4-----5p4-------5p4--|
D|-------------------------5-------------------------------------------|
A|--5------------------------------------------------------------------|
E|--7------------------------------------------------------------------|

e|-------------------------------------------------------------------|
B|-------------------------------------------------------------------|
G|-----------5----4h5p4--------5p4------5p4----5p4----5p4----5p4-----|
D|-------------------------5-----------------------------------------|
A|--5----------------------------------------------------------------|
E|--7----------------------------------------------------------------|

e|----------------|--------------|
B|----------------|--------------|    Play 8 times
G|--7---5---4-----|----4---5---7-|
D|--------------7-|-7------------|
A|----------------|--------------|
E|----------------|--------------|

e|-------------------------------|
B|-------------------------------|     Play 7 or more times (there is no
G|-----------5-----4h5p4---------|     actually 'Outro' because the      
D|----7-------------------5------|     sound of both guitars is fading
A|----5--------------------------|    at the end...)
E|-------------------------------|
Добавлено: 20.05.2012
Другие материалы по этой песне:

Страница создана 20.05.2012
http://primanota.ru/judas-priest/caviar-and-meths-chords.htm
Привет, Гость.
Предлагаем пройти революционный курс по гитаре.
Подарок от PrimaNota.Ru, забирай!