PrimaNota.ru - самый крупный в мире бесплатный архив песенных текстов, аккордов, табулатур и нот


Judas Priest - Angel Of Retribution (album) - таба, видео

Регистрация Запомнить меня
Войти через:  Facebook Google Twitter Vk Yandex Mail.ru

Judas Priest - Angel Of Retribution (album) - таба, видео

Печатать
Просмотров: 201
Уроки эстрадного вокала в Санкт-Петербурге
Judas priest – angel of retribution album
songs:

1. Judas rising
2. Deal with the Devil
3. Revolution 
4. Worth Fighting For
5. Demonizer 
6. Wheels of Fire
7. Angel 
8. Hellrider
9. Eulogy
10. Lochness

TABLATURE LEGEND
----------------
 h   - hammer-on
 p   - pull-off
 b   - bend
 pb  - pre-bend
 r   - bend release (if no number after the r, then release immediately)
 /\  - slide into or out of (from/to "nowhere")
 s   - legato slide
 S   - shift slide
  - natural harmonic
[n]  - artificial harmonic
n(n) - tapped harmonic
 ~   - vibrato
 tr  - trill
 T   - tap
 TP  - trem. picking
 PM  - palm muting
\n/  - tremolo bar dip; n = amount to dip
 \n  - tremolo bar down
 n/  - tremolo bar up
/n\  - tremolo bar inverted dip
 =   - hold bend; also acts as connecting device for hammers/pulls
 <>  - volume swell (louder/softer)
 x   - on rhythm slash represents muted slash
 o   - on rhythm slash represents single note slash
 |  - bar
||  - double bar
||o - repeat start
o|| - repeat end
*|  - double bar (ending)
 :  - bar (freetime)
 $  - Segno

1. Judas rising
Tuning E

Intro

|--------0-----------0-----------0-----------0-----------0-|
|--0-5-7---7-5-0-5-7---7-5-0-5-7---7-5-0-5-7---7-5-0-7-8---|
|----------------------------------------------------------|
|----------------------------------------------------------|
|----------------------------------------------------------|
|----------------------------------------------------------|

|-----------0-----------0-----------0------------0-------------0-|
|-8-7-0-7-8---8-7-0-7-8---8-7-0-7-8---8-7-0-8-10---10-8-0-8-10---|
|----------------------------------------------------------------|
|----------------------------------------------------------------|
|----------------------------------------------------------------|
|----------------------------------------------------------------|

|-------------0-------------0-------------|
|-10-8-0-8-10---10-8-0-8-10---10-8-0------|
|-----------------------------------------|
|-----------------------------------------|
|-----------------------------------------|
|-----------------------------------------|

|--------0-----------0-----------0-----------0-----------0-|
|--0-5-7---7-5-0-5-7---7-5-0-5-7---7-5-0-5-7---7-5-0-7-8---|
|----------------------------------------------------------|
|----------------------------------------------------------|
|----------------------------------------------------------|
|----------------------------------------------------------|

|-----------0-----------0-----------0------------0-------------0-|
|-8-7-0-7-8---8-7-0-7-8---8-7-0-7-8---8-7-0-8-10---10-8-0-8-10---|
|----------------------------------------------------------------|
|----------------------------------------------------------------|
|----------------------------------------------------------------|
|----------------------------------------------------------------|

|-------------0-------------0--------------0---------------0--|
|-10-8-0-8-10---10-8-0-10-8---10-8-0-10-12---12-10-0-10-12----|
|-------------------------------------------------------------|
|-------------------------------------------------------------|
|-------------------------------------------------------------|
|-------------------------------------------------------------|

|---------------0---------------0---------------0---------------0--|
|-12-10-0-10-12---12-10-0-10-12---12-10-0-12-15---15-12-0-12-15----|
|------------------------------------------------------------------|
|------------------------------------------------------------------|
|------------------------------------------------------------------|
|------------------------------------------------------------------|

|---------------0---------------15---------------15---------------15-|
|-15-12-0-12-15---15-12-0-15-17----17-15-0-15-17----17-15-0-15-17----|
|--------------------------------------------------------------------|
|--------------------------------------------------------------------|
|--------------------------------------------------------------------|
|--------------------------------------------------------------------|

|----------12~--------------------|
|--17-15-0-15b~-------------------|
|---------------------------------|
|---------------------------------|
|---------------------------------|
|---------------------------------|

This is Played quietly behin the intro
|----------------------------------------------------------------------|
|----------------------------------------------------------------------|
|----------------------------------------------------------------------|
|7~-7-9-10-9~--9-10-12--14-12-10~--------------------------------------|
|---------------------------------10-9-7-10-7--7-9-10-9--9-10-12-10~---|
|----------------------------------------------------------------------|

|--------------------------------------------|
|--------------------------------------------|
|--------------------------------------------|
|--------------------------------------------|
|-10-12-14-15-14-12-10-9-7-10-7~-------------|
|--------------------------------------------|

Main riff

|---------------------------------------------------------|
|---------------------------------------------------------|
|---------------------------------------------------------|
|-7/9999--7/9999-7/9999-------7/9999--7/9999-----------5--|
|-5/7777--5/7777-5/7777-5-4-2-5/7777--5/7777-5-4-2-5-4-7--|
|-----------------------3-2-0----------------3-2-0-3-2----|
     
|---------------------------------------------------------------|
|---------------------------------------------------------------|
|---------------------------------------------------------------|
|-7/9999--7/9999--7/9999----------7/9999--7/9999--7/9999--------|
|-5/7777--5/7777--5/7777--5-4-2---5/7777--5/7777--5/7777-5-4-2--|
|-------------------------3-2-0--------------------------3-2-0--|
    

Verse 
|-----------------------------------------------------|
|-----------------------------------------------------|
|-----------------------------------------------------|
|-7-7-7-7-7-7-7-7-7-7--------7/9-9-9-9-9-9-9-9--------|
|-5-5-5-5-5-5-5-5-5-5--5-4-2-5/7-7-7-7-7-7-7-7-5-4-2--| (x5)
|----------------------3-2-0-------------------3-2-0--|

          
Pre chorus    
|------------------------------------|------------------------------|-----------------|
|------------------------------------|------------------------------|-----------------|
|------------------------------------|------------------------------|--5--------------|
|------------------------------------|------------------------------|--5--------------|
|--5h-7-7-7-7-7-7-7-5h-7-7-7-7-7-7-7-|--5h-7-7-7-7-7-7-7-5---4---2--|--3--------------|
|--0-----0-0-0-0-0-0-0---0-0-0-0-0-0-|--0----0-0-0-0-0-0-3---2---0--|-----------------|

 
|--------------------|------------|--------------------------|-------------|
|--------------------|------------|--------------------------|-------------|
|--4-----------------|------------|--------------------------|-------------|
|--4--------5--------|--2---------|--------------------------|--5----------|
|--2--------5--------|--2---------|-----------0--2--3--2--0--|--5----------|
|-----------3--------|--0---------|--0--2--3-----------------|--3----------|

chorus
|-------------------|-------------------|
|-------------------|-------------------|
|--7----------------|-------------------|
|--7----------------|--5----------------|
|--5----------------|--5----------------|
|-------------------|--3----------------|

|-------------------|---------------------|
|-------------------|---------------------|
|--7----------------|--7------------------|
|--7----------------|--7------------------|
|--5----------------|--5------------------|
|-------------------|---------------------|

Main riff  (x2)
Brideg

|-------------------|----------------------|
|-------------------|----------------------|
|--4----------------|--5\------------------|
|--4----------------|--5\------------------| (x3)
|--2----------------|--3\------------------|
|-------------------|----------------------|


rhythm for the solo
|-------------------------------------------------------------------------|
|-------------------------------------------------------------------------|
|-------------------------------------------------------------------------|
|-4-----5-------4-----5-------4-----5-------4-----5-4-3-5-4-2-------------|
|-2-----3-------2-----3-------2-----3-------2-----3-2-0-3-2-0-5-4-2-5-4-2-|
|-------------------------------------------------------------3-2-0-3-2-0-|

|---------------------------------------|
|---------------------------------------|
|---------------------------------------|
|-7/9999--7/9999--7/9999----------------|
|-5/7777--5/7777--5/7777-5--4--2--------|
|------------------------3--2--0--------|

|---------------------------------------|
|---------------------------------------|
|---------------------------------------|
|-7/9999--7/9999--7/9999----------------|
|-5/7777--5/7777--5/7777-5--4--2--------|
|------------------------3--2--0--------|

|-----------------------------------------------------|
|-----------------------------------------------------|
|-----------------------------------------------------|
|-7-7-7-7-7-7-7-7-7-7--------7/9-9-9-9-9-9-9-9--------|
|-5-5-5-5-5-5-5-5-5-5--5-4-2-5/7-7-7-7-7-7-7-7-5-4-2--|
|----------------------3-2-0-------------------3-2-0--|

|---------------------------------------|
|---------------------------------------|
|---------------------------------------|
|-7/9999--7/9999--7/9999----------------|
|-5/7777--5/7777--5/7777-5--4--2--------|
|------------------------3--2--0--------|

|---------------------------------------|
|---------------------------------------|
|---------------------------------------|
|-7/9999--7/9999--7/9999----------------|
|-5/7777--5/7777--5/7777-5--4--2--------|
|------------------------3--2--0--------|

|----------------------------------------------|
|----------------------------------------------|
|----------------------------------------------|
|-55555555-44444444----------------------------|
|-33333333-22222222-5555-2222-------0022332200-|
|-------------------3333-0000-002233-----------|

|-----------------------------------------|
|-----------------------------------------|
|-----------------------------------------|
|---------------------77---77---77---77---|
|-55---55---55---55---55---55---55---55---|
|-33---33---33---33-----------------------|
 'apretist reveal'  'the secret of...?'

|-----------------------------------------|
|-----------------------------------------|
|-----------------------------------------|
|---------------------77---77---77---77---|
|-55---55---55---55---55---55---55---55---|
|-33---33---33---33-----------------------|


 Repeat 
Prechorus 
Chorus 
Main riff  
Fade out

2. Deal with the Devil

intro (main rhythm figure
E|--------------------------------------------------------|
B|--------------------------------------------------------|
G|-7/9-------------7/9--12--9---7/9-------------7/9-------|
D|-7/9-------------7/9--12--9---7/9-------------7/9--8--7-|
A|-5/7-------------5/7--10--7---5/7-------------5/7--8--7-|
E|-----0-0-0-0-0-0------------0-----0-0-0-0-0-0------6--5-|
       x x x x x x            x     x x x x x x
play four times for intro and verse

intro solo
E|-----12-12--10h12p10-10h12p10----10h12p10----10p8p7--------------|
B|------------------------------12----------12--------10p8p7-------|
G|-(9)~------------------------------------------------------9p7h9~|
D|-----------------------------------------------------------------|
A|-----------------------------------------------------------------|
E|-----------------------------------------------------------------|

verse solo
E|-12h15p12h15p12h15p12\3h5/17-12h15p12h15p12-|
B|--------------------------------------------|
G|--------------------------------------------|
D|--------------------------------------------|
A|--------------------------------------------|
E|--------------------------------------------|

second verse solo
E|--------------------------------------------------|
B|--------------------------------------------------|
G|--------------------------------------------------|
D|--------------------------------------------------|
A|-7h9h10-7h9h10-7h9h10-7h9h10-7h9h10-7h9h10--------|
E|-------------------------------------------7\0/12~|

pre-chorus
E|---------------------------------------------------|
B|---------------------------------------------------|
G|-12-12--11-11--9-9--7-7--5-5------5------5-5-4-2-0-|
D|-12-12--11-11--9-9--7-7--5-5------5------5-5-4-2-0-|
A|-10-10--9--9---7-7--5-5--3-3--3-3----3-3-----------|
E|---------------------------------------------------|
                                x x    x x

E|--------------------------------------|
B|--------------------------------------|
G|------2-2--4-4--5-5--4------2-4-2-----|
D|-5-5--2-2--4-4--5-5--4----4-------4-3-|
A|-5-5--0-0--2-2--3-3--2--2-------------|
E|-3-3----------------------------------|
play twice

Chorus
E|-----------------------------------|
B|-----------------------------------|
G|---0-2---2-0-2---------------------|
D|-2-0-2---2-0-2-2---------------5-2-|
A|-2-------------2---------------5-2-|
E|-----------------0-0-0-0-0-0-0-3-0-|
                   x x x x x x x
play four times

then play main riff for verse again

second verse solo
E|-12-12p10h12p10----12p10h12p10----10h12p10h12p10-------------------|
B|----------------12-------------12----------------17-10h11h12p11p10-|
G|-------------------------------------------------------------------|
D|-------------------------------------------------------------------|
A|-------------------------------------------------------------------|
E|-------------------------------------------------------------------|

E|-----------|
B|-----------|
G|-12p11p9~~~|
D|-----------|
A|-----------|
E|-----------|

second verse second solo
E|----------------------------------------------------------------|
B|----------------------------------------------------------------|
G|-----(9)~-----(9)~-----(9)~-------------------------------------|
D|-7b9------7b9------7b9------12-7h9p7-12-7h9p7-12-7h9p7-12-7h9p7-|
A|----------------------------------------------------------------|
E|----------------------------------------------------------------|
                               t        t        t        t

then play pre-chorus again

first solo over second pre-chorus
E|-7~5h7p5-------|
B|---------7-5\4~|
G|---------------|
D|---------------|
A|---------------|
E|---------------|

second solo over second pre-chorus
E|-10==10----12~~~|
B|-12==---12------|
G|----------------|
D|----------------|
A|----------------|
E|----------------|

then play chorus again

Bridge
E|-----------------------------------------------------------------|
B|-----------------------------------------------------------------|
G|-2-----2---------2-----2---------2-----2---------2-----2---------|
D|-2-----2---------2-----2---------2-----2---------2-----2---------|
A|---0-0---0-0-0-0---0-0---0-0-0-0---0-0---0-0-0-0---0-0---0-0-0-0-|
E|-----------------------------------------------------------------|
     x x   x x x x   x x   x x x x   x x   x x x x   x x   x x x x

E|-----------------------------------------------------------------|
B|-----------------------------------------------------------------|
G|-0-----0---------0-----0---------2-----2---------2-----2---------|
D|-0-----0---------0-----0---------2-----2---------2-----2---------|
A|---0-0---0-0-0-0---0-0---0-0-0-0---0-0---0-0-0-0---0-0---0-0-0-0-|
E|-----------------------------------------------------------------|
     x x   x x x x   x x   x x x x   x x   x x x x   x x   x x x x

E|---------------------|
B|---------------------|
G|-2-----2---------7===|
D|-2-----2---------7===|
A|---0-0---0-0-0-0-5===|
E|---------------------|
     x x   x x x x

-guitar solo

Rhythm under solo
E|---------------------------|
B|---------------------------|
G|-2-------2-------2-----2-2-|
D|-2-------2-------2-----2-2-|
A|---0-0-0---0-0-0---0-0-----|
E|---------------------------|
     x x x   x x x   x x
play twice


E|---------------------------------------------------|
B|---------------------------------------------------|
G|-7-------7-------5-------2-------2-------2-----2-2-|
D|-7-------7-------5-------2-------2-------2-----2-2-|
A|---5-5-5---5-5-5---3-3-3---0-0-0---0-0-0---0-0-----|
E|---------------------------------------------------|
     x x x   x x x   x x x   x x x   x x x   x x
then play this whole thing two more times

E|-------------------------------------------------------------------------|
B|-------------------------------------------------------------------------|
G|-5==4==------------------------------------------------------------------|
D|-5==4==2-----------------------------------------------------------------|
A|-3==2==2-----------------------------------------------------------------|
E|-------0-0-0-0-0-0-0-0-0-0-0-0-0-0-0-0-0-0-0-0-0-0-0-0-0-0-0-0-0-0-0-0-0-|
         x x x x x x x x x x x x x x x x x x x x x x x x x x x x x x x x

E|-------------|
B|-------------|
G|-------------|
D|-------------|
A|-------------|
E|-0-2-3-5-0-2-|
play that twice

E|--------------------------|
B|--------------------------|
G|-5==4==---2==5==4==--2====|
D|-5==4==5==2==5==4==5-2====|
A|-3==2==5==0==3==2==5-0====|
E|-------3==---------3------|

solo
E|------------------------------------------------------------|
B|-10-10-8b10~13-10-10-10-12-10-10-10-13-10-10-10-15-10-10-10-|
G|------------------------------------------------------------|
D|------------------------------------------------------------|
A|------------------------------------------------------------|
E|------------------------------------------------------------|

E|----------------------------------------------------------|
B|-13-10-10-10-12-10-10-10-13-10-10-10-15-------------------|
G|----------------------------------------------------------|
D|------------------------------------------------5-7-5-(7)~|
A|------------------------------------------3-5-7-----------|
E|----------------------------------------5-----------------|

E|------------------------------------------17-15-17-15----17-15----|
B|------------------------------------------------------17-------17~|
G|------------------------------------------------------------------|
D|------------------------------------------------------------------|
A|-0-0-0-0-0-0-0-0-0-0-0-0-0-0-0-0-12-10-12-------------------------|
E|------------------------------------------------------------------|

E|-12h15p12\-15h17p12h17h20p17-15-12~/24p22h24p22-22-20-19-20p19p17-|
B|------------------------------------------------------------------|
G|------------------------------------------------------------------|
D|------------------------------------------------------------------|
A|------------------------------------------------------------------|
E|------------------------------------------------------------------|

E|----------17h19h20\-17p15h17p15----15-17-17-15-------------|
B|-20p19p17-----------------------17-------------17-15-------|
G|-----------------------------------------------------17-16-|
D|-----------------------------------------------------------|
A|-----------------------------------------------------------|
E|-----------------------------------------------------------|

E|-12-17-15-17-17p15-------17p15h17p15-------------------|
B|-------------------17p15-------------17-16-15-13-13-15~|
G|-------------------------------------------------------|
D|-------------------------------------------------------|
A|-------------------------------------------------------|
E|-------------------------------------------------------|

E|-17-17-20p19p17-17-17-17h20p17-17h19p17-17-17~|
B|----------------------------------------------|
G|----------------------------------------------|
D|----------------------------------------------|
A|----------------------------------------------|
E|----------------------------------------------|

E|-----------------------------------------------------------------|
B|-----------------------------------------------------------------|
G|-----------------------------------------------------------------|
D|-----------------------------------------------------------------|
A|-0-0-0-0-0-0-0-0-0-0-0-0-0-0-0-0-0-0-0-0-0-0-0-0-0-0-0-0-0-0-0-0-|
E|-----------------------------------------------------------------|
   x x x x x x x x x x x x x x x x x x x x x x x x x x x x x x x x

E|-------------------------------------------------------------------------|
B|-13-10-10-10-15-10-10-10-13-10-10-10-15-10-10-10-17-15-15-15-17-15-15-15-|
G|-------------------------------------------------------------------------|
D|-------------------------------------------------------------------------|
A|-------------------------------------------------------------------------|
E|-------------------------------------------------------------------------|

E|-15-15-15-15-17-15-15-15-17~|
B|----------------------------|
G|----------------------------|
D|----------------------------|
A|----------------------------|
E|----------------------------|

E|-----------------------------------------------------------|
B|-----------------------------------------------------------|
G|-4-4-3-2-2-3-4-4-3-2-2-3-2-2-3-4==2-4-2---2---------4/~~~~~|
D|-2-2-1-0-0-1-2-2-1-0-0-1-0-0-1-2==0-2-0-5-0---------2/~~~~~|
A|----------------------------------------3------------------|
E|-----------------------------------------------------------|

E|----20-12-19-17-------------------------------------------------|
B|----20-12-19-17-------------------------------------------------|
G|-16-------------5-4-3-5-4-3-------------5-4-3-5-4-3-------------|
D|-14-------------------------5-4-3-5-4-3-------------5-4-3-5-4-3-|
A|----------------------------------------------------------------|
E|----------------------------------------------------------------|

E|-15p12----------------17p15p12-------------15p12-------------12~~|
B|-------15p12-------------------15p12-------------15p12-------13~~|
G|-------------14p12h15----------------14p12-------------14p12-----|
D|-----------------------------------------------------------------|
A|-----------------------------------------------------------------|
E|-----------------------------------------------------------------|

Then play the chorus two times

outro solo 1
E|-24~12-12-14b16r14-----------------------------------15~15h17p15----|
B|-------------------12~~~12~~~13p10h12p10-15h17p15----------------17~|
G|--------------------------------------------------16----------------|
D|--------------------------------------------------------------------|
A|--------------------------------------------------------------------|
E|--------------------------------------------------------------------|

End
E|-------------|
B|-------------|
G|-----9-----9-|
D|---9-----9---|
A|-7-----6-----|
E|-------------|
Play four times

second outro solo
E|-0//////////24~~~~~~|
B|--------------------|
G|--------------------|
D|--------------------|
A|--------------------|
E|--------------------|

That will do it.  This was a very hard song to tab. but it is the whole song and it will 
you a good idea of what is played.
~shredder

enjoy yall!


3. Revolution 
|--------------------------------------------------------------|
|--------------------------------------------------------------|
|---9-9-9-9-12-9-9--2-2-3-3-4--9-9-9-9-12-9-9------------------|
|---9-9-9-9-12-9-9--2-2-3-3-4--9-9-9-9-12-9-9-7b-7b-5b-5b-7p5--|
|---7-7-7-7-10-7-7--0-0-1-1-2--7-7-7-7-10-7-7------------------|
|--------------------------------------------------------------|

|--------------------------------------------------------|
|--------------------------------------------------------|
|---9-9-9-9-12-9-9-7/9-9-9-x-x-x-9-9-9-9-12-9-9-2-3-4----|
|---9-9-9-9-12-9-9-7/9-9-9-x-x-x-9-9-9-9-12-9-9-2-3-4----|x2
|---7-7-7-7-10-7-7-5/7-7-7-x-x-x-7-7-7-7-10-7-7-0-1-2----|
|--------------------------------------------------------|

|-------------------------------------------------------------|
|-------------------------------------------------------------|
|-------------------------------------------------------------|
|--7-9--7-9-----------------------7-9--7-9------5-------------|
|--5-7--5-7-------------5-7-10p7--5-7--5-7--5h7---7-5---------|
|-------------5h7-7-5-7-------------------------------7-5-3---|

|--------------------------------------------------------|
|--------------------------------------------------------|
|---9-9-9-9-12-9-9-7/9-9-9-x-x-x-9-9-9-9-12-9-9-2-3-4----|
|---9-9-9-9-12-9-9-7/9-9-9-x-x-x-9-9-9-9-12-9-9-2-3-4----|x2
|---7-7-7-7-10-7-7-5/7-7-7-x-x-x-7-7-7-7-10-7-7-0-1-2----|
|--------------------------------------------------------|

in this one they change it a little but i cant tell what it is
|-------------------------------------------------------------|
|-------------------------------------------------------------|
|-------------------------------------------------------------|
|--7-9--7-9-----------------------7-9--7-9------5-------------|
|--5-7--5-7-------------5-7-10p7--5-7--5-7--5h7---7-5---------|
|-------------5h7-7-5-7-------------------------------7-5-3---|

|--------------------------------------------------------|
|--------------------------------------------------------|
|---9-9-9-9-12-9-9-7/9-9-9-x-x-x-9-9-9-9-12-9-9-2-3-4----|
|---9-9-9-9-12-9-9-7/9-9-9-x-x-x-9-9-9-9-12-9-9-2-3-4----|x2
|---7-7-7-7-10-7-7-5/7-7-7-x-x-x-7-7-7-7-10-7-7-0-1-2----|
|--------------------------------------------------------|

|-----------------------------------------------------------|
|-----------------------------------------------------------|
|--14b----14b--14b---9-9-9-9-12-9-7-9--9-9-9-9-12-9-2-3-4---|
|--------------------9-9-9-9-12-9-7-9--9-9-9-9-12-9-2-3-4---|
|--------------------7-7-7-7-10-7-5-7--7-7-7-7-10-7-0-1-2---|
|-----------------------------------------------------------|

|-----------------------------------------|
|-----------------------------------------|
|--9-9-9-9-12-9-7-9--9-9-9-9-12-9-2-3-4---|
|--9-9-9-9-12-9-7-9--9-9-9-9-12-9-2-3-4---|
|--7-7-7-7-10-7-5-7--7-7-7-7-10-7-0-1-2---|
|-----------------------------------------|

repeat this a couple times
|----------------|
|----------------|
|--2-3-4-2-3-4---|
|--2-3-4-2-3-4---|
|--0-1-2-0-1-2---|
|----------------|

solo
|---------------------------------------------------------------|
|---------------------------------------------------------------|
|---14b---14b--12-14-12-14br-12---14b--14b--12-14-12-14br-12----|
|-----------------------------------------------------------14--|
|---------------------------------------------------------------|
|---------------------------------------------------------------|

---------------------------------------------------------------|
---------------------------------------------------------------|
---14b---14b--12-14-12-14br-12---14b--14b--12-14-12-14br-12----|
-----------------------------------------------------------14--|
---------------------------------------------------------------|
---------------------------------------------------------------|

palm muted|
|----------------------------------|
|----------------------------------|
|----------------------------------|
|--9xxx9xxx9xxx9xxx9xxx9-2223334---|x6
|--7xxx7xxx7xxx7xxx7xxx7-0001112---|
|----------------------------------|

repeat many times
|--------------------------------------------------------|
|---9-9-9-9-12-9-9-7/9-9-9-x-x-x-9-9-9-9-12-9-9-2-3-4----|
|---9-9-9-9-12-9-9-7/9-9-9-x-x-x-9-9-9-9-12-9-9-2-3-4----|
|---7-7-7-7-10-7-7-5/7-7-7-x-x-x-7-7-7-7-10-7-7-0-1-2----|
|--------------------------------------------------------|

4. Worth Fighting For
[note: I fixed the rythem part of the solo]
[note 2: I fixed the bridge]


INTRO

|Guitar 1 Glenn Tipton (distorted)
|
|----------------------------------------------------------|
|----------------------------------------------------------|
|--------------------0------0---------0--------------------|
|--------2---------2------0---------0-------7--------------|
|----0h2-----0-2-3------2---------2------/5----0h2---0-----|
|-0-----------------------------3------------------0---3-2-|
|
|Guitar 2 KK Downing (distorted)
|
|----------------------------------------------------------|
|----------------------------------------------------------|
|----------------------------------------------------------|
|----------------------------------------------------------|
|----------------------------------------------------------|
|----------------------------------------------------------|


|Guitar 1 (distorted)
|
|----------------------------------------------------------|
|----------------------------------------------------------|
|--------------------0------0---------0--------------------|
|--------2---------2------0---------0-------7--------------|
|----0h2-----0-2-3------2---------2------/5----0h2---0-----|
|-0-----------------------------3------------------0---3-2-|
|
|Guitar 2 (distorted)
| Em               Cadd9  G/B   G5        D5
|-0----------------3------3-----3---------2----------------|
|-0----------------3------3-----3---------3----------------|
|-0----------------0------0-----0---------2----------------|
|-2----------------x------0-----0---------0----------------|
|-2----------------3------2-----x--------------------------|
|-0-----------------------------3--------------------------|


|Guitar 1 (distorted)
|
|----------------------------------------------------------|
|----------------------------------------------------------|
|----------------------------------------------------------|
|-2--------------------------------------------------------|
|-2--------------------------------------------------------|
|-0--------------------------------------------------------|
|
|Guitar 2 (distorted)
|
|--------10--------10----------------10--------10----------|
|---12--------12----------------12--------12---------------|
|/9----9----9----9----9-7h9--/9----9----9----9----9-7h9----|
|----------------------------------------------------------|
|----------------------------------------------------------|
|----------------------------------------------------------|


VERSE


|Guitar 1 (clean)
|
|-0---------------------------0------------------0---------|
|-0---------------------------1------------------1---------|
|-0---------------------------2------------------2---------|
|-2---------------------------2------------------2---------|
|-2---------------------------0------------------0---------|
|-0--------------------------------------------------------|
|
|Guitar 2 (distorted)
|
|----------------------------------------------------------|
|----------------------------------------------------------|
|----------------------------------------------------------|
|-----------------------------2222222222222222222222222----|
|-222222222222222222222222222-0000000000000000000000000----|
|-000000000000000000000000000---------------------------3-2|
| PM......................... .........................
1:You said I could never find a way to ease your mind
2:I tried so hard to have you reach another side of me

|Guitar 1 (clean)
|
|-0---------------------------------0-------------|
|-0---------------------------------1-------------|
|-0---------------------------------2-------------|
|-2---------------------------------2-------------|
|-2---------------------------------0-------------|
|-0-----------------------------------------------|
|
|Guitar 2 (distorted)
|
|-------------------------------------------------|
|-------------------------------------------------|
|-------------------------------------------------|
|-----------------------------------2222222222----|
|-222222222222222222222222222222222-000000000-----|
|-000000000000000000000000000000000------------3-2|
| PM............................... ..........
  But where I go you wind up in the dust                      X2
  Instead you went to nowhere and forgot

CHORUS

|Guitar 1 (distorted)
|
|----------------------------------------------------------|
|----------------------------------------------------------|
|--------------------0------0---------0--------------------|
|--------2---------2------0---------0-------7--------------|
|----0h2-----0-2-3------2---------2------/5----0h2---0-----|
|-0-----------------------------3------------------0---3-2-|
|
|Guitar 2 (distorted)
|
|----------------------------------------------------------|
|----------------------------------------------------------|
|----------------------------------------------------------|
|----------------------------------------------------------|
|----------------------------------------------------------|
|----------------------------------------------------------|


|Guitar 1 (distorted)
|
|----------------------------------------------------------|
|----------------------------------------------------------|
|--------------------0------0---------0--------------------|
|--------2---------2------0---------0-------7--------------|
|----0h2-----0-2-3------2---------2------/5----0h2---0-----|
|-0-----------------------------3------------------0---3-2-|
|
|Guitar 2 (distorted)
| Em               Cadd9  G/B   G5        D5
|-0----------------3------3-----3---------2----------------|
|-0----------------3------3-----3---------3----------------|
|-0----------------0------0-----0---------2----------------|
|-2----------------x------0-----0---------0----------------|
|-2----------------3------2-----x--------------------------|
|-0-----------------------------3--------------------------|


|Guitar 1 (distorted)
|
|----------------------------------------------------------|
|----------------------------------------------------------|
|----------------------------------------------------------|
|-2--------------------------------------------------------|
|-2--------------------------------------------------------|
|-0--------------------------------------------------------|
|
|Guitar 2 (distorted)
|
|--------10--------10----------------10--------10----------|
|---12--------12----------------12--------12---------------|
|/9----9----9----9----9-7h9--/9----9----9----9----9-7h9----|
|----------------------------------------------------------|
|----------------------------------------------------------|
|----------------------------------------------------------|


VERSE


|Guitar 1 (clean)
|
|-0-----------------------------0--------------------0---------|
|-0-----------------------------1--------------------1---------|
|-0-----------------------------2--------------------2---------|
|-2-----------------------------2--------------------2---------|
|-2-----------------------------0--------------------0---------|
|-0------------------------------------------------------------|
|
|Guitar 2 (distorted)
|
|--------------------------------------------------------------|
|--------------------------------------------------------------|
|--------------------------------------------------------------|
|-------------------------------222222222222222222222222222----|
|-22222222222222222222222222222-000000000000000000000000000----|
|-00000000000000000000000000000-----------------------------3-2|
| PM........................... ...........................

1:Desert heat can wear ya down, but still I'm rollin' through
2:I am driven by your thirst, to quench myself of love

|Guitar 1 (clean)
|
|-0--------------------------------0---------------|
|-0--------------------------------1---------------|
|-0--------------------------------2---------------|
|-2--------------------------------2---------------|
|-2--------------------------------0---------------|
|-0------------------------------------------------|
|
|Guitar 2 (distorted)
|
|--------------------------------------------------|
|--------------------------------------------------|
|--------------------------------------------------|
|----------------------------------222222222222----|
|-22222222222222222222222222222222-000000000000----|
|-00000000000000000000000000000000--------------3-2|
| PM.............................. ............
  Did I see you're figure in the haze?            X2
  The sun beats on me for the price I pay


CHORUS

|Guitar 1 (distorted)
|
|----------------------------------------------------------|
|----------------------------------------------------------|
|--------------------0------0---------0--------------------|
|--------2---------2------0---------0-------7--------------|
|----0h2-----0-2-3------2---------2------/5----0h2---0-----|
|-0-----------------------------3------------------0---3-2-|
|
|Guitar 2 (distorted)
|
|----------------------------------------------------------|
|----------------------------------------------------------|
|----------------------------------------------------------|
|----------------------------------------------------------|
|----------------------------------------------------------|
|----------------------------------------------------------|


|Guitar 1 (distorted)
|
|----------------------------------------------------------|
|----------------------------------------------------------|
|--------------------0------0---------0--------------------|
|--------2---------2------0---------0-------7--------------|
|----0h2-----0-2-3------2---------2------/5----0h2---0-----|
|-0-----------------------------3------------------0---3-2-|
|
|Guitar 2 (distorted)
| Em               Cadd9  G/B   G5        D5
|-0----------------3------3-----3---------2----------------|
|-0----------------3------3-----3---------3----------------|
|-0----------------0------0-----0---------2----------------|
|-2----------------x------0-----0---------0----------------|
|-2----------------3------2-----x--------------------------|
|-0-----------------------------3--------------------------|


|Guitar 1 (distorted)
|
|----------------------------------------------------------|
|----------------------------------------------------------|
|----------------------------------------------------------|
|-2--------------------------------------------------------|
|-2--------------------------------------------------------|
|-0--------------------------------------------------------|
|
|Guitar 2 (distorted)
|
|--------10--------10----------------10--------10-----------|
|---12--------12----------------12--------12----------------|
|/9----9----9----9----9-7h9--/9----9----9----9----9-7-------|
|-----------------------------------------------------------|
|-----------------------------------------------------------|
|-----------------------------------------------------------|


BRIDGE


|Guitar 1 (distorted)
|
|----------------------------------------------------------|
|----------------------------------------------------------|
|----------------------------------------------------------|
|----2----5----2----5----4/5----2----5----2----5---0-2-----|
|----2----5----2----5----4/5----2----5----2----5---0-2-----|
|-00---00---00---00---00-----00---00---00---00---0---------|
| PM   ..   ..   ..   ..     ..   ..   ..   ..   .
|
|Guitar 2 (distorted)
|
|----------------------------------------------------------|
|----------------------------------------------------------|
|----------------------------------------------------------|
|----------------------------------------------------------|
|----------------------------------------------------------|
|----------------------------------------------------------|

|Guitar 1 (distorted)
|
|----------------------------------------------------------|
|----------------------------------------------------------|
|----------------------------------------------------------|
|----2----5----2----5----4/5----2----5----2----5---0-2-----|
|----2----5----2----5----4/5----2----5----2----5---0-2-----|
|-00---00---00---00---00-----00---00---00---00---0---------|
| PM   ..   ..   ..   ..     ..   ..   ..   ..   .
|
|Guitar 2 (distorted)
|
|-----------------------------------------------------------|
|-----------------------------------------------------------|
|----9----12----9---12--10/12---9----10---9----10--10-12----|
|----9----12----9---12--10/12---9----10---9----10--10-12----|
|-----------------------------------------------------------|
|/00---00---00---00---00-----00---00---00---00---0----------|
| PM   ..   ..   ..   ..     ..   ..   ..   ..   .


SOLO


|Guitar 1 (distorted)
|
|-------------------------7--------|
|---------7-8-8~---8--888---10-8-7-|
|-9--999---------------------------|
|-9--999---------------------------|
|----------------------------------|
|----------------------------------|
|
|
|Guitar 2 (distorted)
|
|----------------------------------|
|----------------------------------|
|-222222--55555-----------222------|
|-222222--55555----555555-222------|
|-000000--33333----555555-000------|
|------------------333333------3-2-|
| PM....  .....    ...... ...


|Guitar 1 (distorted)
|
|---------------------------------------------------|
|---------------------------------------------------|
|--------------555555555555555-------------44444444-|
|-222222222222-555555555555555--5555555555-44444444-|
|-222222222222-333333333333333--5555555555-22222222-|
|-000000000000------------------3333333333----------|
| PM.......... ...............  .......... ........
|
|Guitar 2 (distorted)
|
|---------------------------------10b11b10----12----|
|------------------------------------------12----12-|
|----0------------0---------------------------------|
|----2----------------------------------------------|
|--------0-2----3---2-3--0-2-0----------------------|
|-00---0-----0------------------3-------------------|


BRIDGE


|Guitar 1 (clean)
| C                  Am           Em
|-0------------------0------------0----|
|-1------------------1------------0----|
|-0------------------2------------0----|
|-2------------------2------------2----|
|-3------------------0------------2----|
|---------------------------------0----|
|
|
|Guitar 2 (clean)
| C                  Am           Em
|-0------------------0------------0----|
|-1------------------1------------0----|
|-0------------------2------------0----|
|-2------------------2------------2----|
|-3------------------0------------2----|
|---------------------------------0----|
|
 Night road leads me to a town of ghosts


|Guitar 1 (clean)
| G                   C         Asus2        E
|-3-------------------0-----------0----------0-------|
|-3-------------------1-----------0----------0-------|
|-0-------------------0-----------2----------0-------|
|-0-------------------2-----------2----------2-------|
|-2-------------------3-----------0----------2-------|
|-3------------------------------------------0-------|
|
|
|Guitar 2 (clean)
| G                   C         Asus2        E
|-3-------------------0-----------0----------0-------|
|-3-------------------1-----------0----------0-------|
|-0-------------------0-----------2----------0-------|
|-0-------------------2-----------2----------2-------|
|-2-------------------3-----------0----------2-------|
|-3------------------------------------------0-------|
|
  Beckoned by the glow of kerosone and tumbleweed

|Guitar 1 (clean)
|Cadd9    C       E
|-3-------0-------0------------------------|
|-3-------1-------0------------------------|
|-0-------2-------0------------------------|
|-2-------2-------2------------------------|
|-3-------0-------2------------------------|
|-----------------0------------------------|
|
|
|Guitar 2 (clean)
|Cadd9    C       E
|-3-------0-------0------------------------|
|-3-------1-------0------------------------|
|-0-------2-------0------------------------|
|-2-------2-------2------------------------|
|-3-------0-------2------------------------|
|-----------------0------------------------|
|
  They're calling out (They're calling out)

|Guitar 1 (clean)
|Cadd9 C       E
|-3----0-------0------------------------|
|-3----1-------0------------------------|
|-0----2-------0------------------------|
|-2----2-------2------------------------|
|-3----0-------2------------------------|
|--------------0------------------------|
|
|
|Guitar 2 (clean)
|Cadd9 C       E
|-3----0-------0------------------------|
|-3----1-------0------------------------|
|-0----2-------0------------------------|
|-2----2-------2------------------------|
|-3----0-------2------------------------|
|--------------0------------------------|
|
  Forever More        (Forever More)

CHORUS


|Guitar 1 (distorted)
|
|----------------------------------------------------------|
|----------------------------------------------------------|
|--------------------0------0---------0--------------------|
|--------2---------2------0---------0-------7--------------|
|----0h2-----0-2-3------2---------2------/5----0h2---0-----|
|-0-----------------------------3------------------0---3-2-|
|
|Guitar 2 (distorted)
| Em               Cadd9  G/B   G5        D5
|-0----------------3------3-----3---------2----------------|
|-0----------------3------3-----3---------3----------------|
|-0----------------0------0-----0---------2----------------|
|-2----------------x------0-----0---------0----------------|
|-2----------------3------2-----x--------------------------|
|-0-----------------------------3--------------------------| X4

OUTRO

|Guitar 1 (distorted)
|
|----------------------------------------------------------|
|----------------------------------------------------------|
|----------------------------------------------------------|
|----2----5----2----5----4/5----2----5----2----5---0-2-----|
|----2----5----2----5----4/5----2----5----2----5---0-2-----|
|-00---00---00---00---00-----00---00---00---00---0---------|
| PM   ..   ..   ..   ..     ..   ..   ..   ..   .
|
|Guitar 2 (distorted)
|
|----------------------------------------------------------|
|----------------------------------------------------------|
|----------------------------------------------------------|
|----------------------------------------------------------|
|----------------------------------------------------------|
|----------------------------------------------------------|


|Guitar 1 (distorted)
|                                                    E5
|----------------------------------------------------0-----|
|----------------------------------------------------0-----|
|----------------------------------------------------0-----|
|----2----5----2----5----4/5----2----5----2----5---0-2-----|
|----2----5----2----5----4/5----2----5----2----5---0-2-----|
|-00---00---00---00---00-----00---00---00---00---0---0-----|
| PM   ..   ..   ..   ..     ..   ..   ..   ..   .
|
|Guitar 2 (distorted)
|
|---------10--------10---------------10--------10---------|
|----12--------12---------------12--------12--------------|
|-/9----9----9----9----9-7h9-/9----9----9----9---9-7-9----|
|---------------------------------------------------------|
|---------------------------------------------------------|
|---------------------------------------------------------|

5. Demonizer 
This song is definitely in drop d tuning rather than half step down(ie drop c#)
Some of its in 3/4 time(eg verse) and some in 4/4(eg intro,main riff and stuff) which is 
strange! I haven't marked pinch harmonics on because its kindof obvious where they are.
Intro
e|---------------------------|---------------------------------------------|
B|---------------------------|-end-of-intro--------------------------------|
G|o-------------------------o|---------------------------------------------|
D|o-----------------------6-o|-----------------------6---------------------|
A|------6--5----6-5---5------|------6--5--6-5---5--------------------------|
D|-0--0-------------0---0----|-0--0-----------0----0-----------------------|

Main riff
e|---------------------------------|--------------------------------|
B|---------------------------------|--------------------------------|
G|---------------------------------|--------------------------------|
D|---------------------------------|--------------------------------|
A|---------5---------------5-------|--------5---------------5-------|
D|-0-6-3-0---6-0-6-3-0-5-0---3-2-0-|--6-3-0---6-0-6-3-0-5-0---3-2-0-|

Verse
e|------------------------|-----------------------|
B|---pm|---pm|---pm-------|---pm|---pm|---pm------|
G|-7-----7-----7----5--8--|-7-----7-----7---8--5--|
D|-7-----7-----7----5--8--|-7-----7-----7---8--5--|
A|-5-----5-----5----------|-5-----5-----5---6--3--|
D|-0-0-0-0-0-0-0-0--------|-0-0-0-0-0-0-0-0-------|

e|------------------------|-----------------------|
B|---pm|---pm|---pm-------|---pm|---pm|---pm------|
G|-7-----7-----7----5--8--|-5-----5-----5---7--8--|
D|-7-----7-----7----5--8--|-5-----5-----5---7--8--|
A|-5-----5-----5----------|-3-3-3-3-3-3-3-3-5--6--|
D|-0-0-0-0-0-0-0-0--------|-----------------------|

Interlude
e|-----------------------------------|
B|---pm--|-----pm--|-----pm--|----pm-|
G|o---------------------------------o|
D|o---------------------------------o|
A|---------3---------5---------3-----|
D|---0-0-0-3---0-0-0-5---0-0-0-3--0--|
verse again with basic kind of lead:
e|-----------|----------|---------|-----------|
B|--10-------|-10-------|-10------|-8---------|
G|o-12b------|-12b------|-12b-----|-10b------o|
D|o----------|----------|---------|----------o|
A|-----------|----------|---------|-----------|
D|-----------|----------|---------|-----------|

Verse continued
e|-----------------------|----------------------|---------------------|-------------|
B|---pm|---pm|-----------|---pm|---pm|----------|---pm|---pm|---------|-pm------|---|
G|-----------------------|----------------------|---------------------|-------------|
D|-7-----7-----7---5--8--|-7-----7-----7--8--5--|-5-----5-----5-8-5-7-|-----------3~|
A|-7-----7-----7---5--8--|-7-----7-----7--8--5--|-5-----5-----5-8-5-7-|-------------|
D|-7-7-7-7-7-7-7---5--8--|-7-7-7-7-7-7-7--8--5--|-5-5-5-5-5-5-5-8-5-7-|-0-2-3-0-2---|

Chorus                                           |1
e|----------------------------------------------|---------------|
B|-pm--------|----pm--------|-----pm--------|---|-pm|-----------|
G|-------------10-------------12--------------10|---------------|
D|-------------10-------------12--------------10|---------------|
A|-0-0-0-0-0-0-8--0-0-0-0-0-0-10--0-0-0-0-0-0-8-|-0-0-6--3-2-1--|
D|-0-0-0-0-0-0----0-0-0-0-0-0-----0-0-0-0-0-0---|-0-0-6--3-2-1--|

|2
e|--------------------------|---------------------------------------------|
B|--------------------------|------------pm|------------------------------|
G|--------------------------|---------------------------------------------|
D|------------------------6-|---------------------------------------------|
A|------6--5----6-5---5-----|------6--5--0-0-6--3-2-1---------------------|
D|-0--0-------------0---0---|-0--0-------0-0-6--3-2-1---------------------|

Solo rhythm 1(maybe not the exact numbers of 2s but you get the idea)
e|-----------------------------------------------------|
B|-pm------------------------------------------------|-|
G|-----------------------------------------------------|
D|-----------------------------------------------------|
A|-----------------------------------------------------|
D|-2-2-2-2-2-2-2-2-3-2-2-2-2-5-2-2-2-2-3-2-2-2-2-3-2-0-|

Solo rhythm 2
e|---------------------------------|--------------------------------|
B|---pm--------------------|-------|--pm------------------------|---|
G|-7-----------------------------3-|--------------------------------|
D|-7-----------------------------3-|--3-3-3-3-3-3-3-3-3-3-3-3-3-3-3-|
A|-5-0-0-0-0-0-0-0-0-0-0-0-0-3-0-1-|--1-1-1-1-1-1-1-1-1-1-1-1-1-1-3-|
D|-0-0-0-0-0-0-0-0-0-0-0-0-0-3-0---|------------------------------3-|

e|---------------------------------|--------------------------------|
B|---pm------------------------|---|--pm------------------------|---|
G|-------------------------------5-|------------------------------5-|
D|-------------------------------5-|--5-5-5-5-5-5-5-5-5-5-5-5-5-5-5-|
A|---3-3-3-3-3-3-3-3-3-3-3-3-3-3-3-|--3-3-3-3-3-3-3-3-3-3-3-3-3-3-3-|
D|---3-3-3-3-3-3-3-3-3-3-3-3-3-3---|--------------------------------|

e|---------------------------------|--------------------------------|
B|---pm--------------------|-------|--pm------------------------|---|
G|-7-----------------------------3-|--------------------------------|
D|-7-----------------------------3-|--3-3-3-3-3-3-3-3-3-3-3-3-3-3-5-|
A|-5-0-0-0-0-0-0-0-0-0-0-0-0-3-0-1-|--1-1-1-1-1-1-1-1-1-1-1-1-1-1-5-|
D|-0-0-0-0-0-0-0-0-0-0-0-0-0-3-0---|------------------------------5-|

e|---------------------------------|--------------------------------|
B|---pm--------|-----pm--------|---|--pm----------|-----------------|
G|---------------------------------|--------------------------------|
D|---------------3---------------7-|--------------------------------|
A|---5-5-5-5-5-5-3---3-3-3-3-3-3-7-|--7-7-7-7-7-7-7-7-8-7-5-7-5-3-2-|
D|---5-5-5-5-5-5-3---3-3-3-3-3-3-7-|--7-7-7-7-7-7-7-7-8-7-5-7-5-3-2-|

solo rhythm 3
e|---------|---------|---------|---------|----------|
B|---------|---------|---------|---------|----------|
G|-3-----5-|-7-----5-|-3---2---|---------|----------|
D|-3-----5-|-7-----5-|-3---2---|-5-----8-|-7--------|
A|-1-----3-|-5-----3-|-1---0---|-5-----8-|-7--------|
D|---------|---------|---------|-5-----8-|-7--------|

e|---------|---------------------------------|--------|--------------------|
B|---------|---------------------------------|--------|--------------------|
G|---------|---------------------------------|--------|--------------------|
D|-1---0---|---------------------------------|-1---5--|--------------------|
A|-1---0---|---------------------------------|-1---5--|-5-7-8-10-----------|
D|-1---0---|-5-5-5-5-7-7-7-7-8-8-8-8-3-3-3-3-|-1---5--|-5-7-8-10-----------|


e|---------|---------------------------------|--------|--------|
B|---------|---------------------------------|--------|--------|
G|---------|---------------------------------|-----3--|-----5--|
D|-1---0---|---------------------------------|-1---3--|-3---5--|
A|-1---0---|---------------------------------|-1---1--|-3---3--|
D|-1---0---|-5-5-5-5-7-7-7-7-8-8-8-8-3-3-3-3-|-1------|-3------|

Outro
e|-------------------------------------------|
B|-------------------------------------------|
G|-------------------------------------------|
D|-------------------------------------------|
A|-3-2-1----3-2-1-----3-2-1----3-2-1--3-2-0--|
D|-3-2-1----3-2-1-----3-2-1----3-2-1--3-2-0--|


6. Wheels of Fire
Regular Tuning EADGBe
Intro (Heavy Distortion) guitar 1

[A]
|---------------------------------------------------------|
|---------------------------------------------------------|
|---------------------------------------------------------|
|--5---------5---------5---7------------------------------|
|--5---------5---------5---7------------------------------|
|--3-0-0-0-0-3-0-0-0-0-3-0-5------------------------------|

[B] Guitar 1 and 2 after [A]
|----------------------------------------------|
|----------------------------------------------|
|----------------------------------------------|
|--5---------5---------------------------------|
|--5---------5---------------------------------|
|--3-0-0-0-0-3-0-0-0-0-0-0-0-0-----------------|


|------------------------------------------|
|------------------------------------------|
|------------------------------------------|
|--5---------5---------5---7---------------|
|--5---------5---------5---7---------------|
|--3-0-0-0-0-3-0-0-0-0-3-0-5---------------|

|---------------------------------------------------------|
|---------------------------------------------------------|
|---------------------------------------------------------|
|--5---------5--------------------------------------------|
|--5---------5--------------------------------------------|
|--3-0-0-0-0-3-0-0-0-0-0-0-0-0----------------------------|


Verses 1 and 2

1. Born on the other side     -        Of The Track
2. Gotta Get Outta Here       -        I Won't Look Back
|-------------------|  |----------------------------| |-----------|
|-------------------|  |----------------------------| |-----------|
|-------------------|  |7--9--7--9------------------| |-----------|
|-------------------|  |7--9--7--9------------------| |-5-/-7--2--|
|------------------ |  | 5--7--5--7-----------------| |-5-/-7--2--|
|--0-0-0-0-0-0-0-0- |  |------------0-0-0-0-0-0-0-0-| |-3-/-5--0--|


Born On The Other Side-Wild As A Hurricane-Livin' in Overdrive
|---------------------------------------------------------------|
|---------------------------------------------------------------|
|--5----------------2-----------------------5--------------7----|
|--5----------------2----2--------------5---5--------------7----|
|--3----------------0----2--------------5---3--------------5----|
|------------------------0--------------3-----------------------|

Chorus part 1
                         1.Wheels Of Fire
                         2.In My Soul
|----------------------------------------------------------------------|
|----------------------------------------------------------------------|
|----------------------------------------------------------------------|
|----------------------------------------------------------------------|
|----------------------------------------------------------------------|
|--6---5---3---5---3----0---0-0-0-0-0-0-0-0---6---5----3----5----3---0-|

Chorus Part 2

  Wheels of Fire    Wheels of fire let em' roll
|--------------------------------------------------------------------|
|--------------------------------------------------------------------|
|--------------------------------------------------------------------|
|--------------------5----------4----3-------------------------------|
|--------------------5----------4----3-------------------------------|
|--0-0-0-0-0-0-0-0---3----------2----1-------------------------------|


Start This As Halford Says ‘Roll' At end of Chorus
|---------------------------------------------------------|
|---------------------------------------------------------|
|---------------------------------------------------------|
|--5---------5---------5---7------------------------------|
|--5---------5---------5---7------------------------------|
|--3-0-0-0-0-3-0-0-0-0-3-0-5------------------------------|


 |-----------------------------------------------------|
 |-----------------------------------------------------|
 |-----------------------------------------------------|
 |--5---------5----------------------------------------|
 |--5---------5----------------------------------------|
 |--3-0-0-0-0-3-0-0-0-0-0-0-0-0------------------------|


Verses 3 and 4

1. Too Fast To Give A Damn     -     Stand My Ground
2. No One Or Anything          -     Tie Me Down

|-------------------|   |----------------------------| |------------|
|-------------------|   |----------------------------| |------------|
|-------------------|   |7--9--7--9------------------| |------------|
|-------------------|   |7--9--7--9------------------| |-5-/-7--2---|
|-------------------|   |5--7--5--7------------------| |-5-/-7--2---|
|--0-0-0-0-0-0-0-0--|   |------------0-0-0-0-0-0-0-0-| |-3-/-5--0---|


Born On The Other Side-Wild As A Hurricane-Livin' in Overdrive
|---------------------------------------------------------------|
|---------------------------------------------------------------|
|--5----------------2-----------------------5--------------7----|
|--5----------------2----2--------------5---5--------------7----|
|--3----------------0----2--------------5---3--------------5----|
|------------------------0--------------3-----------------------|

Chorus part 1
                         1.Wheels Of Fire
                         2.In My Soul
|----------------------------------------------------------------------|
|----------------------------------------------------------------------|
|----------------------------------------------------------------------|
|----------------------------------------------------------------------|
|----------------------------------------------------------------------|
|--6---5---3---5---3----0---0-0-0-0-0-0-0-0---6---5----3----5----3---0-|

Chorus Part 2

  Wheels of Fire    Wheels of fire let em' roll
|--------------------------------------------------------------------|
|--------------------------------------------------------------------|
|--------------------------------------------------------------------|
|--------------------5----------4----3-------------------------------|
|--------------------5----------4----3-------------------------------|
|--0-0-0-0-0-0-0-0---3----------2----1-------------------------------|

Start This As Halford Says ‘Roll' At end of Chorus – Also Start small solo
|---------------------------------------------------------|
|---------------------------------------------------------|
|---------------------------------------------------------|
|--5---------5---------5---7------------------------------|
|--5---------5---------5---7------------------------------|
|--3-0-0-0-0-3-0-0-0-0-3-0-5------------------------------|

|-----------------------------------------------------------|
|-----------------------------------------------------------|
|-----------------------------------------------------------|
|---5---------5---------------------------------------------|
|---5---------5---------------------------------------------|
|---3-0-0-0-0-3-0-0-0-0-0-0-0-0-----------------------------|


Ride  To  Live Live To  Ride   Wheels of fire           Forever!
|-------------- ---- --------  ----------------------------------------|
|-------------- ---- --------  ----------------------------------------|
|--2---4---5--- ---- 5-------  2-----4-----5-----4-----2-2-2-2---------|
|--2---4---5--- 3--- 5---5---  2-----4-----5-----4-----2-2-2-2---3---5-|
|--0---2---3--- 3--- 3---5---  0-0-0-2-0-0-3-0-0-2-0-0-0-0-0-0---3---5-|
|-------------- 1--- ----3---  ----------------------------------1---3-|

Rhythm For 1st part of solo
|---------------------------------|
|---------------------------------|
|--5---------5--------------------|  x4
|--5---------5--------------------|
|--3-0-0-0-0-3-0-0-0-0-0-0-0-0----|
|---------------------------------|
                                         Sorry, No Solo Available
 Rhythm for second part of solo
|---------------------------------|
|---------------------------------|
|---------------------------------|
|--5---------5---------5---7------|  x4
|--5---------5---------5---7------|
|--3-0-0-0-0-3-0-0-0-0-3-0-5------|


Born On The Other Side-Wild As A Hurricane-Livin' in Overdrive
|---------------------------------------------------------------|
|---------------------------------------------------------------|
|--5----------------2-----------------------5--------------7----|
|--5----------------2----2--------------5---5--------------7----|
|--3----------------0----2--------------5---3--------------5----|
|------------------------0--------------3-----------------------|

                        1.Wheels Of Fire
                         2.In My Soul
|----------------------------------------------------------------------|
|----------------------------------------------------------------------|
|----------------------------------------------------------------------|
|----------------------------------------------------------------------|
|----------------------------------------------------------------------|
|--6---5---3---5---3----0---0-0-0-0-0-0-0-0---6---5----3----5----3---0-|


  Wheels of Fire    Wheels of fire let em' roll
|--------------------------------------------------------------------|
|--------------------------------------------------------------------|
|--------------------------------------------------------------------|
|--------------------5----------4----3-------------------------------|
|--------------------5----------4----3-------------------------------|
|--0-0-0-0-0-0-0-0---3----------2----1-------------------------------|

|----
Добавлено: 06.03.2012
Другие материалы по этой песне:
  • Аккорды и текст

Страница создана 06.03.2012
http://primanota.ru/judas-priest/angel-of-retribution-album-chords.htm
Привет, Гость.
Предлагаем пройти революционный курс по гитаре.
Подарок от PrimaNota.Ru, забирай!