PrimaNota.ru - самый крупный в мире бесплатный архив песенных текстов, аккордов, табулатур и нот


Judah And The Lion - Everything Changes - таба, видео

Регистрация Запомнить меня
Войти через:  Facebook Google Twitter Vk Yandex Mail.ru

Judah And The Lion - Everything Changes - таба, видео

Печатать
Просмотров: 43
-------------------------------------------------------------------------------
                             SONG NAME - Band Name
-------------------------------------------------------------------------------
Tabbed by:
E-mail:

Tuning: STANDARD CAPO 5

This tab is based on the Attic Extra acoustic session of the song. It may not be perfect, but it definitely 
works and sounds really good.

Chords Used: 
       G5      Em7     Cadd9     A7
e|-----X--------X--------X-------X----|
B|-----3--------3--------3-------2----|
G|-----0--------0--------0-------0----|
D|-----5--------2--------2-------2----|
A|-----5--------2--------3-------0----|
E|-----3--------0--------0-------0----|


Intro: G5 (Super soft - Emphasis on every 8)

e|---------------------------------------------------------------------------|
B|---------------------------------------------------------------------------|
G|-------0---0---0---0---0---0---0---0---0---0---0---0---0---0---0---0-------|
D|-----5---5---5---5---5---5---5---5---5---5---5---5---5---5---5---5---------|
A|-3h5-----------------------------------------------------------------------|
E|---------------------------------------------------------------------------|

Verse 1: My brother's outside with his friends playing basketball...
  G5
e|---------------------------------------------------------------------------|
B|---------------------------------------------------------------------------|
G|-------0---0---0---0---0---0---0---0---0---0---0---0---0---0---0---0-------| 
D|-----5---5---5---5---5---5---5---5---5---5---5---5---5---5---5---5---------|
A|-3h5-----------------------------------------------------------------------|
E|---------------------------------------------------------------------------|

My sister's upstairs in her room with all her dolls
  G5
e|---------------------------------------------------------------------------|
B|---------------------------------------------------------------------------|
G|-------0---0---0---0---0---0---0---0---0---0---0---0---0---0---0---0-------| 
D|-----5---5---5---5---5---5---5---5---5---5---5---5---5---5---5---5---------|
A|-3h5-----------------------------------------------------------------------|
E|---------------------------------------------------------------------------|

Pre-chorus: Ain't it funny, how everything
  Em7
e|---------------------------------------------------------------------------|
B|---------------------------------------------------------------------------|
G|-----0--0---0--0---0--0---0-----0--0---0--0---0--0---0---------------------|
D|-0h2------2------2------2---0h2------2------2------2-----------------------|
A|---------------------------------------------------------------------------|
E|---------------------------------------------------------------------------|

changes?
  G5
e|---------------------------------------------------------------------------|
B|---------------------------------------------------------------------------|
G|---------------------------------------------------------------------------|
D|------5--5---5--5---5--5---5-----5--5---5--5---5--5---5--------------------|
A|-3h5-------5------5------5---3h5------5------5------5----------------------|
E|---------------------------------------------------------------------------|

Ain't it funny, how everything
  Em7
e|---------------------------------------------------------------------------|
B|------------3----------------------3---------------------------------------|
G|-----0--0-----0---0h2p0-----0--0-----0---0h2p0-----------------------------|
D|-0h2------2-----2-------0h2------2-----2-----------------------------------|
A|---------------------------------------------------------------------------|
E|---------------------------------------------------------------------------|

G5 (Strum)
goes?
  (Lead Riff)
e|-----------------0---3---0-------------------------------------------------|
B|-0---3---3---3---------------3---0---3--0----------------------------------|
G|---------------------------------------------------------------------------| x2
D|---------------------------------------------------------------------------|
A|--------------------------------------------0-0h2--------------------------|
E|---------------------------------------------------------------------------|
         G5
Verse 2: Now my sister's married living in Californ.
  
My brother's making money filing tax reports.

Pre-chorus: Ain't it funny, how everything
  Em7
e|-X-------------------------------------------------------------------------|
B|-3-------------------------------------------------------------------------|
G|-0--------0--0---0--0---0--0---0-----0--0---0--0---0--0---0----------------|
D|-2----0h2------2------2------2---0h2------2------2------2------------------|
A|-2-------------------------------------------------------------------------|
E|-0-------------------------------------------------------------------------|

changes?
  G5
e|---------------------------------------------------------------------------|
B|---------------------------------------------------------------------------|
G|---------------------------------------------------------------------------|
D|------5--5---5--5---5--5---5-----5--5---5--5---5--5---5--------------------|
A|-3h5-------5------5------5---3h5------5------5------5----------------------|
E|---------------------------------------------------------------------------|

Ain't it funny, how everything
  Em7
e|---------------------------------------------------------------------------|
B|------------3----------------------3---------------------------------------|
G|-----0--0-----0---0h2p0-----0--0-----0---0h2p0-----------------------------|
D|-0h2------2-----2-------0h2------2-----2-----------------------------------|
A|---------------------------------------------------------------------------|
E|---------------------------------------------------------------------------|

 G5
goes?
  Lead Riff:
e|-----------------0---3---0-------------------------------------------------|
B|-0---3---3---3---------------3---0---3--0----------------------------------| 
G|---------------------------------------------------------------------------|
D|---------------------------------------------------------------------------|
A|--------------------------------------------0-0h2--------------------------|
E|---------------------------------------------------------------------------|

Bridge: (Strummed with picking here and there)
G5
We're all just getting older
G5
Doing our very best at staying young
G5
But if age is just a number, 
G5
There ain't nothing wrong with having fun

Ain't it funny, how everything changes?
  Em7                              G5
e|-X-------------------------------------------------------------------------|
B|-3-------------------------------------------------------------------------|
G|-0--------0--0-----0--0---0---0-----------------0---0---0------------------|
D|-2----0h2------0h2------0---0--------5--5-----5---5---5---5----------------|
A|-2-------------------------------3h5------3h5------------------------------|
E|-0-------------------------------------------------------------------------|

Ain't it funny, how everything
  Em7                              G5
e|---------------------------------------------------------------------------|
B|---------------------------------------------------------------------------|
G|---------0--0-----0--0---0---0-----------------0---0---0-------------------|
D|-----0h2------0h2------0---0--------5--5-----5---5---5---5-----------------|
A|--------------------------------3h5------3h5-------------------------------|
E|---------------------------------------------------------------------------|

 G5
goes?

(Here it picks up a lot, palm mute slightly until "You won't be moved")

G5
But You don't change, You don't change for anything.
G5 
You won't be moved.
G5
No, You don't change, You don't change for anything.
G5
You're always true.
G5                    A7                    Cadd9
No, You don't change, You don't change for anything.
G5                    A7                             Cadd9 (Single strum)
No, You don't change, You don't change, Now ain't it funny

how everything 

changes
  G5
e|---------------------------------------------------------------------------|
B|---------------------------------------------------------------------------|
G|---------------------------------------------------------------------------|
D|------5--5---5--5---5--5---5-----5--5---5--5---5--5---5--------------------|
A|-3h5-------5------5------5---3h5------5------5------5----------------------|
E|---------------------------------------------------------------------------|

Ain't it funny, how everything

  Em7                              
e|---------------------------------------------------------------------------|
B|---------------------------------------------------------------------------|
G|------0---2p0-----0-----0---2p0--------------------------------------------|
D|--0h2---2-----0h2---0h2---0------------------------------------------------|
A|---------------------------------------------------------------------------|
E|---------------------------------------------------------------------------|

G5
goes
  Lead riff:
e|-----------------0---3---5---3---5/7---------------------------------------|
B|-0---3---3---3-------------------------------------------------------------|
G|---------------------------------------------------------------------------|
D|---------------------------------------------------------------------------|
A|---------------------------------------------------------------------------|
E|---------------------------------------------------------------------------|

End on G5

************************************

| /   slide up
| \   slide down
| h   hammer-on
| p   pull-off
| ~   vibrato
| +   harmonic
| x   Mute note
| b   Bend
| pb  Pre-bend
| br  Bend release
| pbr Pre-bend release
| brb Bend release bend

************************************
Добавлено: 12.05.2016
Другие материалы по этой песне:
  • Аккорды и текст

Страница создана 12.05.2016
http://primanota.ru/judah-and-lion/everything-changes-chords.htm
Привет, Гость.
Предлагаем пройти революционный курс по гитаре.
Подарок от PrimaNota.Ru, забирай!