PrimaNota.ru - самый крупный в мире бесплатный архив песенных текстов, аккордов, табулатур и нот


Juçara Marçal - Velho Amarelo - таба, видео

Регистрация Запомнить меня
Войти через:  Facebook Google Twitter Vk Yandex Mail.ru

Juçara Marçal - Velho Amarelo - таба, видео

Печатать
Просмотров: 61
-------------------------------------------------------------------------------
                             VELHO AMARELO - Juçara Marçal
-------------------------------------------------------------------------------
Tabbed by: markiiitu
E-mail: marcolucio27@gmail.com

Tuning: Standard (time signature 6/4)

e|-------------------------|
B|-------------------------|
G|-----------------0-------| 4x
D|--------0-----1-------0--|
A|----0-1---3-1------3-----|
E|--3----------------------| 

************************************

| /   slide up
| \   slide down
| h   hammer-on
| p   pull-off
| ~   vibrato
| +   harmonic
| x   Mute note
| b   Bend
| pb  Pre-bend
| br  Bend release
| pbr Pre-bend release
| brb Bend release bend

************************************
Добавлено: 15.08.2015
Другие материалы по этой песне:
  • Аккорды и текст

Страница создана 15.08.2015
http://primanota.ru/jucara-marcal/velho-amarelo-chords.htm
Привет, Гость.
Предлагаем пройти революционный курс по гитаре.
Подарок от PrimaNota.Ru, забирай!