PrimaNota.ru - самый крупный в мире бесплатный архив песенных текстов, аккордов, табулатур и нот


Jubing Kristianto - Morning Rain - таба, видео

Регистрация Запомнить меня
Войти через:  Facebook Google Twitter Vk Yandex Mail.ru

Jubing Kristianto - Morning Rain - таба, видео

Печатать
Просмотров: 108
Уроки эстрадного вокала в Санкт-Петербурге
Title: Morning Rain
Artist: Jubing Kristianto
Tabber: Anto Nugroho
Submited by: Reinaldy Rafli
Tempo = 100

-------------------------------
Legend
L - tied note
x - dead note
h - hammer on/pull off
b - bend
s - slide
~ - vibrato
g - ghost note
> - accentuated note
t - trill
M - palm mute
. - staccato
P - popping (bass)
S - slapping (bass)
+ - tapping
W - wide vibrato
< - fade in
w - whammy bar
= - tremolo picking
v - brush up
^ - brush down
V - pick stroke up
n - pick stroke down
-------------------------------
Standard Tuning! 
                                                                       
E |----------------||-0-------------|----------------|----------------|
B |--------1--3----||-------1--0----|--------1-------|-----------0----|
G |----------------||o--------------|-----------2----|--------2-------|
D |----------------||o---2----------|-----2----------|-----0----------|
A |----------------||-0-------------|----------------|----------------|
E |----------------||---------------|--3-------------|--1-------------|

                                                                    
----------------|--0--------0----|--------3--3----|-----------3----|
--------1--3----|--------1-------|----------------|--------1-------|
-----0----------|----------------|-----0----------|-----0----------|
----------------|-----2----------|----------------|----------------|
----------------|--0-------------|--2-------------|--3-------------|
--3-------------|----------------|----------------|----------------|

                                                                    
---------------||--------0--3----||-5-----5--3----|--------0-------|
--------1--3---||----------------||---------------|-----------3----|
-----0--------o||-----0----------||o---5----------|-----4----------|
--------------o||----------------||o3-------------|--3-------------|
--3------------||--3-------------||---------------|----------------|
---------------||----------------||---------------|----------------|

                                                                    
----------------|----------------|--------0-------|----------------|
--1-----1--0----|----------------|-----------3----|-----1--0--1----|
----------------|--------2--0----|--2-------------|----------------|
-----2----------|-----2----------|-----3----------|----------------|
--0-------------|----------------|----------------|----------------|
----------------|--3-------------|--1-------------|--3-------------|

                                                                     
----------------|--------0--3---||----------------|--------0-------||
-----------1----|-----1---------||-----------1----|-----------3----||
--------4-------|--------------o||--------0-------|----------------||
-----2----------|--------------o||-----2----------|-----2----------||
--0-------------|--0------------||--3-------------|--3-------------||
----------------|---------------||----------------|----------------||

                                                                   
-------0-------|--------3--1----|-----0----------|--------0-------|
-1--------3----|----------------|--------3--1----|-----------3----|
o--------------|-----0----------|----------------|-----0----------|
o---2----------|----------------|----------------|--3-------------|
-0-------------|--2-------------|--3-------------|----------------|
---------------|----------------|----------------|----------------|

                                                                             
----------------|---------------||----------------|----------------|-------||
-----0----------|-----------0---||-----3--1--0----|--1--------1----|-------||
--------2--2----|-----0--2-----o||----------------|--------0-------|-------||
--3-------------|--3-----------o||--3-------------|-----3----------|--2----||
----------------|---------------||----------------|--3-------------|-------||
----------------|---------------||----------------|----------------|-------||

                                                                   
-------0-------|----------------|----------------|----------------|
-1h-3-----3----|--------0--1----|-----------1----|----------------|
o--------------|-----0----------|--------4-------|--------2h-0----|
o3-------------|----------------|-----2----------|-----2----------|
---------------|----------------|--0-------------|--0-------------|
---------------|--3-------------|----------------|----------------|

                                                                    
--------0-------|--------0--0----|----------------|---------------||
--1h-3-----3----|----------------|-----------1----|---------------||
----------------|-----0----------|--------4-------|--------2-----o||
--3-------------|----------------|-----2----------|-----2--------o||
----------------|----------------|--0-------------|--0------------||
----------------|--3-------------|----------------|---------------||

                                                                    
----------------|----------------|----------------||-0-------------|
--------1--1----|-----------1----|--------1--3----||-------1--0----|
-----0----------|--------0-------|-----0----------||o--------------|
----------------|-----2----------|----------------||o---2----------|
----------------|--3-------------|--3-------------||-0-------------|
--3-------------|----------------|----------------||---------------|

                                                                    
----------------|----------------|----------------|--0--------0----|
--------1-------|-----------0----|--------1--3----|--------1-------|
-----------2----|--------2-------|-----0----------|----------------|
-----2----------|-----0----------|----------------|-----2----------|
----------------|----------------|----------------|--0-------------|
--3-------------|--1-------------|--3-------------|----------------|

                                                                     
--------3--3----|-----------3----|---------------||--------0--3----||
----------------|--------1-------|--------1--3---||----------------||
-----0----------|-----0----------|-----0--------o||-----0----------||
----------------|----------------|--------------o||----------------||
--2-------------|--3-------------|--3------------||--3-------------||
----------------|----------------|---------------||----------------||

                                                                   
-5-----5--3----|--------0-------|----------------|----------------|
---------------|-----------3----|--1-----1--0----|----------------|
o---5----------|-----4----------|----------------|--------2--0----|
o3-------------|--3-------------|-----2----------|-----2----------|
---------------|----------------|--0-------------|----------------|
---------------|----------------|----------------|--3-------------|

                                                                    
--------0-------|----------------|----------------|--------0--3---||
-----------3----|-----1--0--1----|-----------1----|-----1---------||
--2-------------|----------------|--------4-------|--------------o||
-----3----------|----------------|-----2----------|--------------o||
----------------|----------------|--0-------------|--0------------||
--1-------------|--3-------------|----------------|---------------||

                                                                    
----------------|--------0-------||-------0-------|--------3--1----|
-----------1----|-----------3----||-1--------3----|----------------|
--------0-------|----------------||o--------------|-----0----------|
-----2----------|-----2----------||o---2----------|----------------|
--3-------------|--3-------------||-0-------------|--2-------------|
----------------|----------------||---------------|----------------|

                                                                    
-----0----------|--------0-------|----------------|---------------||
--------3--1----|-----------3----|-----0----------|-----------0---||
----------------|-----0----------|--------2--0----|-----0--2-----o||
----------------|--3-------------|--3-------------|--3-----------o||
--3-------------|----------------|----------------|---------------||
----------------|----------------|----------------|---------------||

                                                                            
----------------|----------------|-------||-8--------8L---|--8--------8----|
-----3--1--0----|--1--------1----|-------||-------8-------|--------8-------|
----------------|--------0-------|-------||o---0----------|-----0----------|
--3-------------|-----3----------|--2----||o--------------|----------------|
----------------|--3-------------|-------||-8-------------|----------------|
----------------|----------------|-------||---------------|----------------|

                                                                    
-----------3L---|--3--------3----|--8--------8L---|--8--------8----|
--------3-------|--------3-------|--------8-------|--------8-------|
-----0----------|-----0----------|-----0----------|-----0----------|
----------------|----------------|----------------|----------------|
--3-------------|----------------|--8-------------|----------------|
----------------|----------------|----------------|----------------|

                                                                    
--0--------3----|--------0------||-------0-------|----------------|
--------1-------|-----1---------||-1h-3-----3----|--------0--1----|
-----2----------|--2-----------o||o--------------|-----0----------|
----------------|--------------o||o3-------------|----------------|
--0-------------|---------------||---------------|----------------|
----------------|---------------||---------------|--3-------------|

                                                                    
----------------|----------------|--------0-------|--------0--0----|
-----------1----|----------------|--1h-3-----3----|----------------|
--------4-------|--------2h-0----|----------------|-----0----------|
-----2----------|-----2----------|--3-------------|----------------|
--0-------------|--0-------------|----------------|----------------|
----------------|----------------|----------------|--3-------------|

                                                                    
----------------|---------------||----------------|----------------|
-----------1----|---------------||--------1--1----|-----------1----|
--------4-------|--------2-----o||-----0----------|--------0-------|
-----2----------|-----2--------o||----------------|-----2----------|
--0-------------|--0------------||----------------|--3-------------|
----------------|---------------||--3-------------|----------------|

                                                                    
----------------||-0--------3L---|--3--0----------|-----------0L---|
--------1--3----||-------3-------|-----------3----|-----1--3-------|
-----0----------||o--------------|----------------|----------------|
----------------||o3-------------|--3-------------|----------------|
--3-------------||---------------|----------------|--3-------------|
----------------||---------------|----------------|----------------|

                                                                    
--0-------------|--0--------3L---|--3--0-----0----|----------------|
----------------|--------3-------|--------3-------|-----------1----|
-----0-----0----|----------------|----------------|--------0-------|
--------2-------|--3-------------|--3-------------|-----2----------|
--3-------------|----------------|----------------|--3-------------|
----------------|----------------|----------------|----------------|

                                                     ^
---------------||----------------|--0-------------|--0----||
-----------1---||--------1--3----|-----3--1-------|--1----||
--------0-----o||-----0----------|-----------0----|--0----||
-----2--------o||----------------|----------------|--2----||
--3------------||--3-------------|----------------|--3----||
---------------||----------------|----------------|-------||
Добавлено: 08.07.2012
Вам также может быть интересно:
Другие материалы по этой песне:

Страница создана 02.03.2012
http://primanota.ru/jubing-kristianto/morning-rain-chords.htm
Привет, Гость.
Предлагаем пройти революционный курс по гитаре.
Подарок от PrimaNota.Ru, забирай!