PrimaNota.ru - самый крупный в мире бесплатный архив песенных текстов, аккордов, табулатур и нот


Juanes - Rosario Tijeras - аккорды и текст, видео

Регистрация Запомнить меня
Войти через:  Facebook Google Twitter Vk Yandex Mail.ru

Juanes - Rosario Tijeras - аккорды и текст, видео

Печатать
Просмотров: 135
Rosario Tijeras
Juanes
Gm             D
Se llamaba Rosario
                    Gm
Del barrio era la mandamás
                       D
Con su pistola en la mano
                     Gm
Siempre lista pa matar
                  D
En odios y desengaños
                  Gm
Rosario era la number one
                   D
Nunca amó ni la amaron

Y en sus ojos
G              D        C
Siempre el dolor existió
        D
todo fue
            C
porque en su niñez
           D
un malpa la violó
               Gm
y ella se vengó
                D
Era Rosario Tijeras
                     Gm
la de pistola, espejito y labial
                                 D
en su cartera siempre llena de vicio
                   Gm
sexo, balas, placer y dolor
                      D                Gm
la de las mil y una vidas (pan, pan, pan!,
Rosario)

Nunca Amó
         D
ni la amaron
Y en sus ojos

G              D        C
Siempre el dolor existió
        D
todo fue
            C
porque en su niñez
           D
un malpa la violó
               G
y ella se vengó
                  C
Y confundió el amor


      D              C             G
una bala lo que entró en su corazón
                 C
nunca jamás lloró
       D                C              G
en su alma siempre un llanto se escucho
                  C
de tantos que mató
      D          C            G
uno vino mal herido y se vengó
                 C
Rosario así murió
          D          C           G
y en el cementerio nadie la lloró


De ahí viene el solo que va

e|-----------------------------------------------|
B|-----------------------------------------------|
G|--5^7~-5^7-5-3-5-5~-5-3h5-2~-2-3-5-7-8-7-5-7-8-|
D|-----------------------------------------------|
A|-----------------------------------------------|
E|-----------------------------------------------|

e|------------------------------------------------|
B|--8-6-6^8~-6^8-6^8-6^8-6-5-4-3-4-3h4-3---3-4h3-3|
G|---------------------------------------5--------|
D|------------------------------------------------|
A|------------------------------------------------|
E|------------------------------------------------|


e|--6-6h3---6-6h3---6-6h3--|
B|--------3-------3-------3|
D|-------------------------|
G|-------------------------|
A|-------------------------|
E|-------------------------|
e|6-6h3---6-6h3---|
B|------3-------3-|
D|----------------|
G|----------------|
A|----------------|
E|----------------|


e|--8-8h5---8-8h5----8-8h5----8-8h5---8-8h5---|
B|--------7--------7--------7-------7-------7-|
G|--------------------------------------------|
D|--------------------------------------------|
A|--------------------------------------------|
E|--------------------------------------------|

e|--10-10h6----10-10h6---10-10h6---10-10h6---10-6-10|
B|-----------8---------8---------8---------8--------|
G|--------------------------------------------------|
D|--------------------------------------------------|
A|--------------------------------------------------|
E|--------------------------------------------------|

e|--11-10h11h10-8----------------|
B|----------------11-10-8--------|
G|-------------------------10-8-7|
D|-------------------------------|
A|-------------------------------|
E|-------------------------------|
Y en sus ojos

G              D        C
Siempre el dolor existió
        D
todo fue
            C
porque en su niñez
           D
un malpa la violó
               G
y ella se vengó
                  C
Y confundió el amor


      D              C             G
una bala lo que entró en su corazón
                 C
nunca jamás lloró
       D                C              G
en su alma siempre un llanto se escucho
                  C
de tantos que mató
      D          C            G
uno vino mal herido y se vengó
                 C
Rosario así murió
          D          C           G
y en el cementerio nadie la lloró

Добавлено: 24.07.2012
Другие материалы по этой песне:
  • Аккорды и текст

Страница создана 28.06.2012
http://primanota.ru/juanes/rosario-tijeras-chords.htm
Привет, Гость.
Предлагаем пройти революционный курс по гитаре.
Подарок от PrimaNota.Ru, забирай!