PrimaNota.ru - самый крупный в мире бесплатный архив песенных текстов, аккордов, табулатур и нот


Juana Molina - Bicho Auto - таба, видео

Регистрация Запомнить меня
Войти через:  Facebook Google Twitter Vk Yandex Mail.ru

Juana Molina - Bicho Auto - таба, видео

Печатать
Просмотров: 110
Song: Bicho Auto
Artist: Juana Molina
Album: Wed 21 (2013)
Tuning: Standard
Capo: 3th Fret

First part:
|--------------------|
|-----------3-3-1-3--|
|--------------------|
|--------------------|
|-----0---0-0-0-0-0--|
|--3-----------------|

Second part:
|------------------|
|------------------|
|------------------|
|------0-4---------|
|----2-------------|
|--0--------3-5-3--|

End:
|-----------------------|
|-----------------------|
|-----------------------|
|------0-4--------------|
|----2------------------|
|--0--------3-5-3----0--|


https://www.youtube.com/watch?v=1Q6jLk90CNc

Добавлено: 07.08.2015
Другие материалы по этой песне:
  • Аккорды и текст

Страница создана 07.08.2015
http://primanota.ru/juana-molina/bicho-auto-chords.htm
Привет, Гость.
Предлагаем пройти революционный курс по гитаре.
Подарок от PrimaNota.Ru, забирай!