PrimaNota.ru - самый крупный в мире бесплатный архив песенных текстов, аккордов, табулатур и нот


Juan Wauters - Water - таба, видео

Регистрация Запомнить меня
Войти через:  Facebook Google Twitter Vk Yandex Mail.ru

Juan Wauters - Water - таба, видео

Печатать
Просмотров: 76
Juan Wauters ~ Water

Off "North American Poetry"

https://www.youtube.com/watch?v=pA7kFIg0VRc

This is Standard, No Capo, and I think Juan's guitar may be slightly flat.

Pretty easy if you can fingerpick.

Please leave suggestions; I'm glad to edit this is necessary.

If anyone feels crazy about tabbing out that last part, I'd be glad to add that.


Intro:
    
   G                      E
e|---------------------------------------------------------| 
B|---3----3-----3-----3-----0----0----0-----0-----0--------| 
G|--0-0--0-0---0-0---0-0---1-1--1-1--1-1---1-1---1-1-------| et cetera until on E until ...
D|---------------------------------------------------------| 
A|------2-----------2----------2----------2----------------| 
E|-3----------3-----------0---------0----------0-----------|


"And let you see":
   A/E                                         E
e|---------------------------------------------------------| 
B|---2----2-----2-----2-----2----2----2-----2-----0----0---| 
G|--2-2--2-2---2-2---2-2---2-2--2-2--2-2---2-2---1-1--1-1--| Alternate back to A on "Right or wrong".
D|---------------------------------------------------------| then.. 
A|-0----------0-----------0---------0----------------2-----| 
E|------0-----------0----------0----------0----0-----------|


Chorus "Woke up early":
   G          C/E         G         C/E        Am/E       C/E        D          C/E
e|--------------------------------------------------------------------(2)--(2)---(0)--(0)---| 
B|---3----3-----1-----1-----3----3----1-----1-----1----1----1----1-----3----3-----1----1----| 
G|--0-0--0-0---0-0---0-0---0-0--0-0--0-0---0-0---2-2--2-2--0-0--0-0---2-2--2-2---0-0--0-0---| Repeat
D|-------------------------------------------------------------------0----------------------| 
A|------2-----3----------------2----3-----------0---------3---------------0-----3-----------| 
E|-3----------------0-----3---------------0----------0---------0---------------------0------|

At AAAAAAAOOooh fall back to E and repeat the Intro / "And let you see" parts.


End "Doing is doing" part is:

E,  A,  Am,  E,  B,  Bb,  A,  E


Lyrics:

And the water will come down
And wash you down
And let you see what you would be
If you'd have known what's right or wrong
Or what is fun

Woke up early, feel that itch
What I'mma do know with this niche?
Do I belong? Who is it that I am?
What is it that I'm for?
Who's that in my skin?
Has he done much for me?
What is it that he says?
Does he talk about me?

And the water will come down
AND wash you down
And let you see what you would be
If you'd have known what's right or wrong
Or what is fun

Woke up early, feel that itch
What I'mma do know with this niche?
Do I belong? Who is it that I am?
What is it that I'm for?
Who's that in my skin?
Has he done much for me?
What is it that he says?
Does he talk about me?

When I learn not to think of thinking
And think
Doing is doing, doing is nothing
Nothing is doing, while you don't do
When I learn not to think of thinking
And think


Enjoy.
Добавлено: 20.06.2015
Вам также может быть интересно:
Другие материалы по этой песне:
  • Аккорды и текст

Страница создана 20.06.2015
http://primanota.ru/juan-wauters/water-chords.htm
Привет, Гость.
Предлагаем пройти революционный курс по гитаре.
Подарок от PrimaNota.Ru, забирай!