PrimaNota.ru - самый крупный в мире бесплатный архив песенных текстов, аккордов, табулатур и нот


Juan Suarez - Ganas De Vivir - таба, видео

Регистрация Запомнить меня
Войти через:  Facebook Google Twitter Vk Yandex Mail.ru

Juan Suarez - Ganas De Vivir - таба, видео

Печатать
Просмотров: 74
-------------------------------------------------------------------------------
                             Ganas de Vivir - Juan Suarez
                             From the film: "El Mariachi"
-------------------------------------------------------------------------------

Intro

()-Ghost Note

eb|-----3--3--5--5/7--7--5--3--3--5--7~-----3--3--5--5/7--7--5--3--3--5--5--7--5--3-----|
Bb|-------------------------------------------------------------------------------------|
Gb|-----4--4--5--5/7--7--5--4--4--5--7~-----4--4--5--5/7--7--5--4--4--5--5--7--5--4-----|
Db|-------------------------------------------------------------------------------------|
Ab|-------------------------------------------------------------------------------------|
Eb|---3--------------------(3)------------3---------------------------------------------|

eb|-------------------------------------------------------------------------------------|
Bb|------5--5--6--6/8--8--6--5--5--5--6--6/8--6--5--------------------------------------|
Gb|------5--5--7--7/9--9--7--5--5--5--7--7/9--7--5--------------------------------------|
Db|-------------------------------------------------------------------------------------|
Ab|---3-------------------------3---------------(3)-------------------------------------|
Eb|-------------------------------------------------------------------------------------|

eb|------3--3--5--5/7--7--5--3--3--5--5/7--5--3-----------------------------------------|
Bb|-------------------------------------------------------------------------------------|
Gb|------4--4--5--5/7--7--5--4--4--5--5/7--5--4-----------------------------------------|
Db|-------------------------------------------------------------------------------------|
Ab|-------------------------------------------------------------------------------------|
Eb|---3---------------------(3)---------------------------------------------------------|
                                              G   G   G  C   G
eb|-----5--5--7--8--8--7--5--5--7--8--7--5----3---3---3--0---3--------------------------|
Bb|-------------------------------------------3---3---3--1---3--------------------------|
Gb|-----5--5--7--9--9--7--5--5--7--9--7--5----0---0---0--0---0--------------------------|
Db|---0------------------(0)------------------0---0---0--2---0--------------------------|
Ab|-------------------------------------------2---2---2--3---2--------------------------|
Eb|-------------------------------------------3---3---3------3--------------------------|

=========================================================================================================

Letra

G
Caminando por la vida voy, caminando por la vida voy
            C                 G
Pensando en un amor, en busca de ese amor
    D              C               G    
Con la ilusión de ver mi vida florecer
G
El sol brilla a mi alrededor, ilumina en mi el corazón
           C                     G
Que va latiendo en mi con ansias de vivir
   D       C                      G                     
Gritando: "El mundo es tuyo, vívelo"
C
Sin embargo, en el corazón muchas vece guardamos rencor
G
La vida cambia una vez más
C
¿Porqué el destino es tan cruel?

Y siempre tenemos que aprender
G                       Bm
Tristeza y llanto y soledad
       D             C                                 G
¿Por qué así? ¿Por qué sufrir? Si solo quiero hoy triunfar

=========================================================================================================

Repite el Intro

eb|-----3--3--5--5/7--7--5--3--3--5--7~-----3--3--5--5/7--7--5--3--3--5--5--7--5--3-----|
Bb|-------------------------------------------------------------------------------------|
Gb|-----4--4--5--5/7--7--5--4--4--5--7~-----4--4--5--5/7--7--5--4--4--5--5--7--5--4-----|
Db|-------------------------------------------------------------------------------------|
Ab|-------------------------------------------------------------------------------------|
Eb|---3--------------------(3)------------3---------------------------------------------|

eb|-------------------------------------------------------------------------------------|
Bb|------5--5--6--6/8--8--6--5--5--5--6--6/8--6--5--------------------------------------|
Gb|------5--5--7--7/9--9--7--5--5--5--7--7/9--7--5--------------------------------------|
Db|-------------------------------------------------------------------------------------|
Ab|---3-------------------------3---------------(3)-------------------------------------|
Eb|-------------------------------------------------------------------------------------|

eb|------3--3--5--5/7--7--5--3--3--5--5/7--5--3-----------------------------------------|
Bb|-------------------------------------------------------------------------------------|
Gb|------4--4--5--5/7--7--5--4--4--5--5/7--5--4-----------------------------------------|
Db|-------------------------------------------------------------------------------------|
Ab|-------------------------------------------------------------------------------------|
Eb|---3---------------------(3)---------------------------------------------------------|
                                             
eb|-----5--5--7--8--8--7--5--5--7--8--7--5----------------------------------------------|
Bb|-------------------------------------------------------------------------------------|
Gb|-----5--5--7--9--9--7--5--5--7--9--7--5----------------------------------------------|
Db|---0------------------(0)------------------------------------------------------------|
Ab|-------------------------------------------------------------------------------------|
Eb|-------------------------------------------------------------------------------------|


Termine con: 

     G
eb|--3--|
Bb|--3--|
Gb|--0--|
Db|--0--|
Ab|--2--|
Eb|--3--|
Добавлено: 30.12.2015
Другие материалы по этой песне:
  • Аккорды и текст

Страница создана 30.12.2015
http://primanota.ru/juan-suarez/ganas-de-vivir-chords.htm
Привет, Гость.
Предлагаем пройти революционный курс по гитаре.
Подарок от PrimaNota.Ru, забирай!