PrimaNota.ru - самый крупный в мире бесплатный архив песенных текстов, аккордов, табулатур и нот


Juan Luis Guerra - Bachata En Fukuoka - аккорды и текст, видео

Регистрация Запомнить меня
Войти через:  Facebook Google Twitter Vk Yandex Mail.ru

Juan Luis Guerra - Bachata En Fukuoka - аккорды и текст, видео

Печатать
Просмотров: 116
Bachata En Fukuoka
Juan Luis Guerra
Intro:

    Bb                Fm       Ab                 Bb 
e|---------9/10-10-10-10\8-8-8----10/11-11-11-11-11\10-10-10---------|
B|--------10/11-11-11-11\9-9-9----12/13-13-13-13-13\11-11-11---------|
G|-------------------------------------------------------------------|
D|-------------------------------------------------------------------|
A|-------------------------------------------------------------------|
E|-------------------------------------------------------------------|

   Bb                Fm       Ab                 Gm 
e|---------9/10-10-10-10\8-8-8----10/11-11-11-11-11\10-10-10---------|
B|--------10/11-11-11-11\9-9-9----12/13-13-13-13-13\11-11-11---------|
G|-------------------------------------------------------------------|
D|-------------------------------------------------------------------|
A|-------------------------------------------------------------------|
E|-------------------------------------------------------------------|


Bb                        Fm         
Dile a la mañana que se acerca mi sueño
Ab                          Bb
que lo que se espera con paciencia se logra
                       Fm
nueve horas a París viajé sin saberlo
Ab                      Bb
y crucé por Rusia con escala en tu boca
F#            Ab              Bb      Fm
Yo canté tu bachata aquí en Fukuoka
Ab          Bb
     (tu bachata en Fukuoka)


Bb                       Fm
Y un atardecer pintó de canvas el cielo
Ab                   Bb
caminé la playa de Momochi, mi anhelo
                      Fm
y se me escapó una sonrisa del alma
Ab                 Bb
aquí me enseñó arigato gozaimasu
F#             Ab              Bb    
Yo canté tu bachata aquí en Fukuoka
      Fm                Ab
Pa'bailar contigo, (pa'bailar)
       Bb
se me alegra la nota
Bb           Fm             Ab
   Quiero cantar contigo, (quiero)
      Gm 
una bachata en Fukuoka
      Bb                      Fm 
Una bachata en Fukuoka, (pa' soñar contigo)
Ab        Bb
    en el mar las gaviotas
 Bb          Fm               Ab
      Con tu piel de abrigo (quiero)
        Gm 
vivir bachata en Fukuoka


Bb Fm  Ab Bb


F#                    Ab              Bb         Gm
Y llegó la hora de partir y decir sayonara (con pocas ganas)
F#                 Ab               
y una palomita se posó en mi ventana
F
  Kon'nichi wa!, ohayoo gozaimasu


Bb       Fm                  Ab
   Pa'bailar contigo, (pa'bailar)
        Bb
se me alegra la nota
Bb            Fm             Ab
Si, quiero cantar contigo (quiero)
       Gm        
una bachata en Fukuoka

Ebm Ab Bb

       Ebm
Una bachata en Fukuoka
Ebm         Abm  
Sueños, de arena en las olas
Bb         Ebm
Besos, me daba tu boca
          Abm
Tengo, estrellas y rosas
Bb        Ebm           
Niña, cantando en Fukuoka

Abm-Bbm-B-F7-Bb

      Fm            Ab
Pa'bailar contigo, (para bailar)
        Bb
se me alegra la nota
Bb            Fm            Ab
Si, quiero cantar contigo (quiero)
       Bb
una bachata en Fukuoka
      Gm                       Fm      
Una bachata en Fukuoka, (pa' soñar contigo)
Ab               Bb
           en el mar las gaviotas
Gm         Fm
    Con tu piel de abrigo
Ab         Bb
   vivir bachata en Fukuoka

Bb Fm Ab Bb

Добавлено: 29.03.2012
Другие материалы по этой песне:
  • Аккорды и текст

Страница создана 29.03.2012
http://primanota.ru/juan-luis-guerra/bachata-en-fukuoka-chords.htm
Привет, Гость.
Предлагаем пройти революционный курс по гитаре.
Подарок от PrimaNota.Ru, забирай!