PrimaNota.ru - самый крупный в мире бесплатный архив песенных текстов, аккордов, табулатур и нот


Juan Gatica - Inverted - бас-таба, видео

Регистрация Запомнить меня
Войти через:  Facebook Google Twitter Vk Yandex Mail.ru

Juan Gatica - Inverted - бас-таба, видео

Печатать
Просмотров: 89
Inverted - Bass Tablature

0 - Open Note
x - Muted Note

Opening & Chorus
Tempo: 148BPM -- 3/4

G|------------------------------------------------|
D|----------5-----------------------4-----2--0----|
A|6-----------766-5--6--5-5---------------------4-| X4
E|------------------------------------------------|

Bridge 1
Tempo: 160BPM -- 2/4

G|--------------------------------------------------------1-------|
D|1---2---1---2---1---2---1-----xx1---2---1---2---1---2-----------|
A|----------------------------------------------------------------| X3
E|----------------------------------------------------------------|

Bridge 2
Tempo: 90BPM -- 4/4

G|----------------------------------------------2-1-------|
D|22--------------11--------------22----------2-----------|
A|------------------------------------------4-------------|
E|--------------------------------------------------------|

Bridge 3
Tempo: 90BPM -- 5/4

G|2--2-----2-22-2-65211--1-----1-11-1-xx1-|
D|----------------------------------------|
A|----------------------------------------|
E|----------------------------------------|

Pre Chorus
rest

Chorus X4
Tempo: 148BPM -- 3/4

Post Chorus
Tempo: 142BPM -- 4/4

G|---------------1---------------1--|
D|3--33-3---------2--22-2-----------|
A|----------------------------------| X4
E|----------------------------------|

Bridge 4
Tempo: 220BPM -- 4/4

G|--------------------------------|
D|-------466666--6---33-1-1-------|
A|44444-----------444--3----4-----|
E|--------------------------------|

Bridge 5
rest

Chorus X4
Tempo: 148BPM -- 3/4

Post Chorus X7
Tempo: 142BPM -- 4/4

Last Measure in Post Chorus
G|------------0---1-------------|
D|1-1---1-3---------------------|
A|------------------------------|
E|------------------------------|

Download the song here:
http://www.newgrounds.com/audio/listen/539400
Добавлено: 08.06.2013
Другие материалы по этой песне:
  • Аккорды и текст

Страница создана 08.06.2013
http://primanota.ru/juan-gatica/inverted-chords.htm
Привет, Гость.
Предлагаем пройти революционный курс по гитаре.
Подарок от PrimaNota.Ru, забирай!