PrimaNota.ru - самый крупный в мире бесплатный архив песенных текстов, аккордов, табулатур и нот


Juan Dela Cruz Band - Todo Mo Na - бас-таба, видео

Регистрация Запомнить меня
Войти через:  Facebook Google Twitter Vk Yandex Mail.ru

Juan Dela Cruz Band - Todo Mo Na - бас-таба, видео

Печатать
Просмотров: 104
Уроки эстрадного вокала в Санкт-Петербурге
There are just 4 patterns:

Intro:
G|----|
D|----|
A|-7\-| 
E|----|	then rest 4 bars

Pattern 1
G|--------------|--------------|--------------|---|
D|--------------|--------------|--------------|---|
A|--7\2-2-55-77-|--7\2-2-55-77-|--7\2-2-55-77-|---|
E|-0------------|-0------------|-0------------|-0-|

Pattern 2
G|------------------|------------------|
D|-99--99--99--99---|-77--77--77--77---|
A|---99--99--99--99-|---77--77--77--77-|
E|------------------|------------------| 3x

Repeat Pattern 1

Repeat Pattern 2

Pattern 3
G|--------------|--------------|--------------|--------------|-----------|
D|--------------|--------------|--------------|--------------|-----------|
A|--7\2-2-55-77-|--7\2-2-55-77-|--7\2-2-55-77-|--7\2-2-55-77-|--7\2-2-55-|
E|-0------------|-0------------|-0------------|-0------------|-0---------|

Pattern 4
G|----------|----------|
D|----------|----------|
A|-3331333--|-55535555-|
E|----------|----------| 2x

G|----------|---|
D|----------|---|
A|-3331333--|-5-|
E|----------|---|

Repeat Pattern 1
Repeat Pattern 2
Repeat Pattern 1
Repeat Pattern 2
Repeat Pattern 3
Repeat Pattern 4
Repeat Pattern 3
Repeat Pattern 4
Repeat Pattern 3
Repeat Pattern 4
Repeat Pattern 3
Repeat Pattern 4
Repeat Pattern 3
Repeat Pattern 4, to fade
Добавлено: 13.04.2012
Другие материалы по этой песне:
  • Аккорды и текст

Страница создана 13.04.2012
http://primanota.ru/juan-dela-cruz-band/todo-mo-na-chords.htm
Привет, Гость.
Предлагаем пройти революционный курс по гитаре.
Подарок от PrimaNota.Ru, забирай!