PrimaNota.ru - самый крупный в мире бесплатный архив песенных текстов, аккордов, табулатур и нот


Juan Dela Cruz Band - Mamasyal Sa Pilipinas - бас-таба, видео

Регистрация Запомнить меня
Войти через:  Facebook Google Twitter Vk Yandex Mail.ru

Juan Dela Cruz Band - Mamasyal Sa Pilipinas - бас-таба, видео

Печатать
Просмотров: 132
Intro:

G|-----|-----|-----|-----|
D|-----|-----|-----|-----|
A|-----|-----|-----|-----|
E|-3-3-|-3-3-|-3-3-|-3-3-|

Verse I:

Ako'y naghihintay . . .
G|---------|---------|-----|-----|
D|---2-3-5-|---2-3-5-|-----|-----|
A|-3-------|-3-------|-----|-----|
E|---------|---------|-3-3-|-3-3-|

Ako'y maghihintay . . .
G|---------|---------|-----|-----|
D|---2-3-5-|---2-3-5-|-----|-----|
A|-3-------|-3-------|-----|-----|
E|---------|---------|-3-3-|-3-3-|

Ngunit . . .
G|---------|---------|-----|-----|
D|---4-7---|---2-5---|-----|-----|
A|-5-----5-|-3-----3-|-----|-----|
E|---------|---------|-3-3-|-3-3-|

Verse II:

Pupunta ako sa Baguio . . .
G|---------|---------|-----|-----|
D|---2-3-5-|---2-3-5-|-----|-----|
A|-3-------|-3-------|-----|-----|
E|---------|---------|-3-3-|-3-3-|

Pupunta ako sa Baguio . . .
G|---------|---------|-----|-----|
D|---2-3-5-|---2-3-5-|-----|-----|
A|-3-------|-3-------|-----|-----|
E|---------|---------|-3-3-|-3-3-|

Pero alas otso na . . .		Oh . . . 
G|---------|---2-----|-------|-----|
D|---7-4---|-----5-3-|-------|-----|
A|-5-----5-|-3-------|---2-3-|-----|
E|---------|---------|-3-----|-3-3-|

Adlib:

G|---------|---------|---------|-----------|
D|---2-3-5-|---2-3-5-|---------|-----------|
A|-3-------|-3-------|---2-3-5-|-----2-3-5-|
E|---------|---------|-3-------|-(3)-------|

G|---------|---------|---------|---------|
D|---2-3-5-|---2-3-5-|---------|-5-2-----|
A|-3-------|-3-------|---2-3-5-|-----3-2-|
E|---------|---------|-3-------|---------|

G|----------|----------|---------|---------|
D|---4-7----|---2-3----|---------|-----4-5-|
A|-5-----x5-|-3-----x3-|---2-3-5-|-5-x-----|
E|----------|----------|-3-------|---------|

G|---------|---------|---------|---------|
D|---------|-5-2-3-5-|---------|-5-3-2---|
A|---2-3-5-|---------|---2-3-5-|-------3-|
E|-3-------|---------|-3-------|---------|

G|---------|---------|---------|---------|
D|---2-3-5-|---2-3-5-|---------|---------|
A|-3-------|-3-------|---2-3-5-|---2-3-5-|
E|---------|---------|-3-------|-3-------|

G|---------|---------|---------|-------------|
D|---7-4---|---2-3-5-|---------|-------------|
A|-5-----5-|-3-------|---2-3-5-|-x5-x5-x5-x5-|
E|---------|---------|-3-------|-------------|

Verse III:

Uwi na ‘ko sa bahay . . .
G|---------|-5-2-----|-----|-----|
D|---2-3-5-|-----5-2-|-----|-----|
A|-3-------|---------|-----|-----|
E|---------|---------|-3-3-|-3-3-|

G|---------|---------|-----|-----|
D|---2-3-5-|---2-3-5-|-----|-----|
A|-3-------|-3-------|-----|-----|
E|---------|---------|-3-3-|-3-3-|

G|----------|---------|-----|-----|
D|---4-7----|---2-3-5-|-----|-----|
A|-5-----x5-|-3-------|-----|-----|
E|----------|---------|-3-3-|-3-3-|

Adlib:

Hoy. . .
G|---------|---------|---------|---------|
D|---2-3-5-|---2-3-5-|---------|---------|
A|-3-------|-3-------|---2-3-5-|---2-3-5-|
E|---------|---------|-3-------|-3-------|

G|---------|-5-2-----|---------|---------|
D|---2-3-5-|-----5-2-|---------|-5-2-----|
A|-3-------|---------|---2-3-5-|-----5-2-|
E|---------|---------|-3-------|---------|

G|----------|---------|---------|-----------------|
D|---4-7----|---2-5-3-|---------|-----------------|
A|-5-----x5-|-3-------|---2-3-5-|-555-555-555-555-|
E|----------|---------|-3-------|-----------------|

G|-----------|-----------|---------|------x4----|
D|-----------|---2-5-----|---------|--5-5----x3-|
A|-----2-3-5-|-3-----(3)-|---2-3-5-|-5----------|
E|-(3)-------|-----------|-3-------|------------|

G|---------|--5-3-x3----|---------|----------|
D|---2-3-5-|-5-------x5-|---------|--5-3-----|
A|-3-------|------------|---2-3-5-|-5----5-3-|
E|---------|------------|-3-------|----------|

G|----------|----------|---------|-----------|
D|---4-7-x4-|---5-3----|---------|----4-77---|
A|-5--------|-3-----x5-|---2-3-5-|-x5------5-|
E|----------|----------|-3-------|-----------|

3:00
G|---------|---------|---------|---------|
D|---------|---2-3-5-|---------|---------|
A|---2-3-5-|-3-------|---2-3-5-|---2-3-5-|
E|-3-------|---------|-3-------|-3-------|

		  Wow, pagkagising sa umaga . . .
G|---------|---------|---------|---------|
D|---2-3-5-|---2-3-5-|---------|---------|
A|-3-------|-3-------|---2-3-5-|---2-3-5-|
E|---------|---------|-3-------|-3-------|

Labindalawang bara pa, pero tamad na ako. 
Sa major scale lang ng C, G, D, pitik-pitikin nyo na lang.
Dun sa second to the last bara, fade na.
Добавлено: 24.05.2012
Другие материалы по этой песне:
  • Аккорды и текст

Страница создана 24.05.2012
http://primanota.ru/juan-dela-cruz-band/mamasyal-sa-pilipinas-chords.htm
Привет, Гость.
Предлагаем пройти революционный курс по гитаре.
Подарок от PrimaNota.Ru, забирай!