PrimaNota.ru - самый крупный в мире бесплатный архив песенных текстов, аккордов, табулатур и нот


Juan Dela Cruz Band - Divisoria - бас-таба, видео

Регистрация Запомнить меня
Войти через:  Facebook Google Twitter Vk Yandex Mail.ru

Juan Dela Cruz Band - Divisoria - бас-таба, видео

Печатать
Просмотров: 90
Intro: Rest 4 bars, then . . .

G|--------------|---------------|--------------|----------------------|
D|--------------|---------------|--------------|----------------------|
A|---------44-5-|---------5h7-5-|---------44-5-|----------------------|
E|-0-55-77------|-0-55-77-------|-0-55-77------|-55-33-22-11-0----12\-|

Verse:
G|------------|------------|------------|--------------|---------------|
D|------------|------------|------------|--------------|---------------|
A|------------|------------|------------|---------44-5-|---------5h7-5-|
E|-5-55-0-5\3-|-5-55-0-5\3-|-5-55-0-5\3-|-0-55-77------|-0-55-77-------|3x

Chorus:
G|-------------------|
D|-------------------|
A|-7-x-7-5---5-x-5-7-|
E|-------------------| 3x

Pre-verse:
G|--------------|---------------|--------------|----------------------|
D|--------------|---------------|--------------|----------------------|
A|---------44-5-|---------5h7-5-|---------44-5-|----------------------|
E|-0-55-77------|-0-55-77-------|-0-55-77------|-55-33-22-11-0----12\-|

Verse:
G|------------|------------|------------|--------------|---------------|
D|------------|------------|------------|--------------|---------------|
A|------------|------------|------------|---------44-5-|---------5h7-5-|
E|-5-55-0-5\3-|-5-55-0-5\3-|-5-55-0-5\3-|-0-55-77------|-0-55-77-------|3x

Chorus:
G|-------------------|
D|-------------------|
A|-7-x-7-5---5-x-5-7-|
E|-------------------| 3x

Adlib:

Rest 4 bars, with drums only and Divisoria chatter. Rest another 4 bars, with guitar 
coming in. Then . . .

G|--------------|---------------|--------------|---------------|
D|--------------|---------------|--------------|---------------|
A|---------44-5-|---------5h7-5-|---------44-5-|---------5h7-5-|
E|-0-55-77------|-0-55-77-------|-0-55-77------|-0-55-77-------|

G|--------------|---------------|--------------|----------------------|
D|--------------|---------------|--------------|----------------------|
A|---------44-5-|---------5h7-5-|---------44-5-|----------------------|
E|-0-55-77------|-0-55-77-------|-0-55-77------|-55-33-22-11-0----12\-|

Verse:
G|------------|------------|------------|--------------|---------------|
D|------------|------------|------------|--------------|---------------|
A|------------|------------|------------|---------44-5-|---------5h7-5-|
E|-5-55-0-5\3-|-5-55-0-5\3-|-5-55-0-5\3-|-0-55-77------|-0-55-77-------|3x

Chorus:
G|-------------------|
D|-------------------|
A|-7-x-7-5---5-x-5-7-|
E|-------------------| 3x. Then, let E (7 on A string) ring 1 more bar

Outro:  Rest 4 bars, with guitar only and Divisoria chatter. Then, . . .

G|--------------|---------------|--------------|---------------|
D|--------------|---------------|--------------|---------------|
A|---------44-5-|---------5h7-5-|---------44-5-|---------------|
E|-0-55-77------|-0-55-77-------|-0-55-77------|-55-33-22-11-0-| 4x to fade
Добавлено: 02.03.2012
Другие материалы по этой песне:
  • Аккорды и текст

Страница создана 02.03.2012
http://primanota.ru/juan-dela-cruz-band/divisoria-chords.htm
Привет, Гость.
Предлагаем пройти революционный курс по гитаре.
Подарок от PrimaNota.Ru, забирай!