PrimaNota.ru - самый крупный в мире бесплатный архив песенных текстов, аккордов, табулатур и нот


Jt Thompson - Gunslinger - таба, видео

Регистрация Запомнить меня
Войти через:  Facebook Google Twitter Vk Yandex Mail.ru

Jt Thompson - Gunslinger - таба, видео

Печатать
Просмотров: 96
http://www.reverbnation.com/jtthompson

This is the tabs for "Gunslinger" by JT Thompson. It's also my first time writing tablature,
so don't make me cry :'(

Drop D

Intro/Outro
E -----------------------------------------|
B -----------------------------------------|
G -----------------------------------------|
D ---0-000-3-0--0---0-000------------------|
A -3--------------3------------------------|
D -----------------------3-0---------------|

Verses
E ----2-222-2-2-222-2-222----------|
B ----3-333-3-3-333-3-333----------|
G ----2-222-2-2-222-2-222----------|
D ----0-000-3-0-000-0-000----------|
A 0-3---------------3-000-----0-3--|
D ------------------------3-0------|


I was born steel look in my eye
a modern day Gunslinger I aint afraid to die
Better start runnin when you hear my Rebel yell
I dont care who your maker is I'm sending you to hell

Chorus
Am                           G
I've been chasing trouble all night
      A                   G                 D
It's a damn good day for setting things right

Verse II
I dont walk soft but I carry a big stick
Your heart will start poundin when you hear my hammers click
When there's fire from my iron you know you're gonna fall
Blessed be the peacemakers no ones above the law

Chorus

Let this be a warning to all who've done me wrong
When you call down the thunder you get sent where you belong
I'm fast as lightnin and I have an empty soul
When I'm out for vengeance heads are gonna roll

Chorus

I was born steel look in my eye
A modern day Gunslinger I aint afraid to die
Better start runnin when you hear my Rebel yell
I dont care who your maker is I'm sending you to hell

Chorus
outro
Добавлено: 16.08.2015
Другие материалы по этой песне:
  • Аккорды и текст

Страница создана 16.08.2015
http://primanota.ru/jt-thompson/gunslinger-chords.htm
Привет, Гость.
Предлагаем пройти революционный курс по гитаре.
Подарок от PrimaNota.Ru, забирай!