PrimaNota.ru - самый крупный в мире бесплатный архив песенных текстов, аккордов, табулатур и нот


Jpegasus - Headhunting - таба, видео

Регистрация Запомнить меня
Войти через:  Facebook Google Twitter Vk Yandex Mail.ru

Jpegasus - Headhunting - таба, видео

Печатать
Просмотров: 17
Уроки эстрадного вокала в Санкт-Петербурге
-------------------------------------------------------------------------------
                            Headhunting - JPEGASUS
-------------------------------------------------------------------------------

   / = slide up
   \ = slide down

Intro          Verse
e|--2--4--2-------2-2-----7-7------|
b|--2--------2---------------------|
G|--2------------------------------|
D|--4-----------4-----4/9-----9\4--|
A|---------------------------------|
E|---------------------------------|

Bass verse
G|------------------|
D|-------0--4--2-0--|
A|-----2------------|
E|--2---------------|
 

Chorus
e|--5----4--2----5----7--14----14----14--|
b|--5----5--2----7----9--14------14------|
G|--6----6--2----6----7--14--------14----|
D|--7----6--4----7----9--16--------------|
A|--7----4--4----------------------------|
E|--5-------2----------------------------|
    A    C# F#   A6  Bm6 F#
        min min          min
  the bass just plays the root notes of the first three chords

Chorus 2                      Transition
e|--5----4--2----5----4--9----5----4--------------------------|
b|--5----5--2----5----5--10---5----5--------------------------|
G|--6----6--2----6----6--11---6----6--11-9--7--6--2-4----6----|
D|--7----6--4----7----6--11---7----6--11-9--7--6--2-4----6----|
A|--7----4--4----7----4--9----7----4--9--7--5--4--0-2----4----|
E|--5-------2----5------------5-------------------------------|
    A    C# F#                
        min min
  here are the chords, just listen for the strumming patterns
     again, the bass just follows the root notes

Build runs
e|-----4-4-----4-4-----4-4-----4--4----4-4-----4-4-----4-4--4--4--4---|
b|----5---5---5---5---5---5---5--5-5--5---5---5---5---5---5--5--5--5--|
G|---6-----6-6-----6-6-----6-6-------6-----6-6-----6-6-----6--6--6----|
D|--7-------7-------6-------6-------7-------7-------6-----------------|
A|--------------------------------------------------------------------|
E|--------------------------------------------------------------------|

Build chords
e|--4----4--|
b|--5----5--|
G|--6----6--|
D|--7----6--|
A|-(x)--(x)-|
E|-(5)--(4)-|
  after the runs we just build on these chords,
  add in the root notes with your thumb

Bass build
G|-------------------------------------------------------------------|
D|--7-7-7-7-7-7-7-7-6-6-6-6-4-4-2-2----------------------------------|
A|----------------------------------5-5-5-5-5-5-5-5-4-4-4-4-2-2-0-0--|
E|-------------------------------------------------------------------|

Outro
e|--4--4--4----4--4--4----2--2--2----7--7--7--|
b|--5--5--5----5--5--5----3--3--3----9--9--9--|
G|--6--6--6----6--6--6----2--2--2----7--7--7--|
D|--7--7--7----7--7--6----4--4--4----9--9--9--|
A|--x--x--x----x--x--x----x--x--x----x--x--x--|
E|--5--5--5----5--5--4----2--2--2----7--7--7--|

Bass outro
G|-----------------------------------------------------------------------------------|
D|-----------------------------------------------------------------------------------|
A|------4---------------5-------4---------7-5-4-------7-5---------7-5-4-------2-4-5--|
E|--5-5-----5-5-4---2-2-----0-0-----5-5-5-------5-5-4-----4-2-2-2-------0-0-0--------|
Добавлено: 16.06.2016
Другие материалы по этой песне:
  • Аккорды и текст

Страница создана 16.06.2016
http://primanota.ru/jpegasus/headhunting-chords.htm
Привет, Гость.
Предлагаем пройти революционный курс по гитаре.
Подарок от PrimaNota.Ru, забирай!