PrimaNota.ru - самый крупный в мире бесплатный архив песенных текстов, аккордов, табулатур и нот


Jp Cooper - We Were Raised Under Grey Skies - аккорды и текст, видео

Регистрация Запомнить меня
Войти через:  Facebook Google Twitter Vk Yandex Mail.ru

Jp Cooper - We Were Raised Under Grey Skies - аккорды и текст, видео

Печатать
Просмотров: 96
Уроки эстрадного вокала в Санкт-Петербурге
We Were Raised Under Grey Skies
Jp Cooper
-------------------------------------------------------------------------------
                  WE WERE RAISED UNDER GREY SKIES - JP Cooper
-------------------------------------------------------------------------------
Tabbed by:ndermawan
E-mail:ndermawan@yahoo.com

Tuning: Half step down


Link: https://www.youtube.com/watch?v=Hn6ykeBIQKw

This is his acoustic version, not sure if the album is a step up in pitch or not.

Lovely song, and this video by Christian Tierney is 
what made me discover his music in the first place!

Chills on the last chorus for sure  :O

------------
Chords Used:
------------
    Em  F#  G or G  C7M   Bm7  Am7  | *Em7 *Bm7 *Am7 | *C7M    X 
e|--0-------3----3---------2---0----|--7-------------|-----------------------|
B|--0-------3----3----5----3---1----|--8----7----5---|---8-----7-------------|
G|--0-------0----4----4----2---0----|--7----7----5---|---9-------------------|
D|--2-------0----5----5----4---2----|--9----7----5---|---9-----5-------------|
A|--2-------2----5----3----2---0----|--7----x----x---|---10----7-------------|
E|--0---2---3----3------------------|-------7----5---|---8-------------------|

-During the *Em7 chords in chorus he hammers on to the 10th fret high e string
 with his pinky.

-------------------------------------------------------------------------------

Verse 1:
--------
                Em                 (F#)    G  
We were raised under Grey skies, 
G                                  C7M    Bm7
But you'll never hear us complain
          Em                       (F#)    G
Oh, and - father led with examples
G                                  C7M    Bm7
Of how to draw beauty from pain
                    Em                          (F#)    G
So I found a thousand spring-times in her eyes
G                                  C7M    Bm7
And I learned to play games in the rain


Chorus:
-------
              Am7                       
Oh, when you left us you didn't really go
              Bm7 
I know you're watching me from my head to my toes
      *Em7               *Bm7          
And I will not go without, I won't walk without you, no
    Am7                            
And truth be told, everybody knows
            Bm7     
You put the food on my plate and you gave me my clothes
      *Em7              *Bm7                             *Am7   *Bm7 
Добавлено: 16.06.2016
Другие материалы по этой песне:
  • Аккорды и текст

Страница создана 16.06.2016
http://primanota.ru/jp-cooper/we-were-raised-under-grey-skies-chords.htm
Привет, Гость.
Предлагаем пройти революционный курс по гитаре.
Подарок от PrimaNota.Ru, забирай!