PrimaNota.ru - самый крупный в мире бесплатный архив песенных текстов, аккордов, табулатур и нот


Joywave - Somebody New - таба, бас-таба, видео

Регистрация Запомнить меня
Войти через:  Facebook Google Twitter Vk Yandex Mail.ru

Joywave - Somebody New - таба, бас-таба, видео

Печатать
Просмотров: 343
Авторы: Daniel Armbruster, Sean Donnelly

-------------------------------------------------------------------------------
                             SOMEBODY NEW - Joywave
-------------------------------------------------------------------------------
Tabbed by:  shaine89    

Tuning:  Standard


Chorus:

e|---------------------------------------------------------------------------|
B|--------------------------------------7/9-6-6h7p6--------------------------|
G|---6h8-6h8-6h8-----6h8-6h8-6h8-6h8--------------------6--------------------|
D|-----------------------------------------------------------8---------------|
A|---------------------------------------------------------------------------|
E|---------------------------------------------------------------------------|

e|---------------------------------------------------------------------------|
B|--------------------------------------7/9-6-6h7p6--------------------------|
G|---6h8-6h8-6h8-----6h8-6h8-6h8-6h8-----------------------------------------|
D|------------------------------------------------------8--------------------|
A|---------------------------------------------------------------------------|
E|---------------------------------------------------------------------------|

Bridge (tremolo picking as you slowly bend the string toward 
the e string and then slowly release the bend):

e|---------------------------------------------------------------------------|
B|---------------------------------------------------------------------------|
G|--------------------------------8br----------------------------------------|
D|---------------------------------------------------------------------------|
A|---------------------------------------------------------------------------|
E|---------------------------------------------------------------------------|

Then let bass line run through twice and then play:

e|---------------------------------------------------------------------------|
B|-----------------------------11--------------------------------------------|
G|--------11--------10-------------------------------------------------------|
D|-----------------------------------------13b-------------------------------|
A|---------------------------------------------------------------------------|
E|---------------------------------------------------------------------------|

Chorus/Outro:

e|---------------------------------------------------------------------------|
B|--------------------------------------7/9-6-6h7p6--------------------------|
G|---6h8-6h8-6h8-----6h8-6h8-6h8-6h8--------------------6--------------------|  2x
D|-----------------------------------------------------------8---------------|
A|---------------------------------------------------------------------------|
E|---------------------------------------------------------------------------|


e|---------------------------------------------------------------------------|
B|--------------------------------------7/9-6-6h7p6--------------------------|
G|---6h8-6h8-6h8-----6h8-6h8-6h8-6h8-----------------------------------------|
D|------------------------------------------------------8--------------------|
A|---------------------------------------------------------------------------|
E|---------------------------------------------------------------------------|


e|---------------------------------------------------------------------------|
B|---------------------------------------------------------------------------|
G|--------------------------------8br----------------------------------------|
D|---------------------------------------------------------------------------|
A|---------------------------------------------------------------------------|
E|---------------------------------------------------------------------------|



************************************

| /   slide up
| h   hammer-on
| p   pull-off
| b   Bend
| br  Bend release

************************************
Добавлено: 31.05.2015
Вам также может быть интересно:
Другие материалы по этой песне:
  • Аккорды и текст

Страница создана 31.07.2014
http://primanota.ru/joywave/somebody-new-chords.htm
Привет, Гость.
Предлагаем пройти революционный курс по гитаре.
Подарок от PrimaNota.Ru, забирай!