PrimaNota.ru - самый крупный в мире бесплатный архив песенных текстов, аккордов, табулатур и нот


Joyce Manor - Shortout Socket - таба, видео

Регистрация Запомнить меня
Войти через:  Facebook Google Twitter Vk Yandex Mail.ru

Joyce Manor - Shortout Socket - таба, видео

Печатать
Просмотров: 49
-------------------------------------------------------------------------------
                          SHORTOUT SOCKET - Joyce Manor
-------------------------------------------------------------------------------
Tabbed by: Thomas Harrison
E-mail: tomjar8@outlook.com

Tuning: E Standard

e|---------------|
B|---------------|
G|---------------|
D|---------------| x4
A|---2-5---2-0---|
E|-3-----0-------|

e|----------------------|
B|----------------------|
G|-----------5-55-7-77--| x2
D|-5-55-2-22-5-55-7-77--|
A|-5-55-2-22-3-33-5-55--|
E|-3-33-0-00------------|

"I've got a problem with yesterday..."

e|----------------------|
B|----------------------|
G|-----------5555-7777--| x2, palm muted
D|-5555-2222-5555-7777--|
A|-5555-2222-3333-5555--|
E|-3333-0000------------|

"Come on, come on..."

e|---------------|
B|---------------|
G|-2----5----7-7-|
D|-2-x8-5-x4-7-7-|
A|-0----3----5-5-|
E|---------------|

e|----------------------|
B|----------------------|
G|-----------5-55-7-77--| x2
D|-5-55-2-22-5-55-7-77--|
A|-5-55-2-22-3-33-5-55--|
E|-3-33-0-00------------|

"Say you're sorry if it sounds alright..."

e|----------------------|
B|----------------------|
G|-----------5555-7777--| x2, palm muted
D|-5555-2222-5555-7777--|
A|-5555-2222-3333-5555--|
E|-3333-0000------------|

"So come on, come on..."

e|---------------|
B|---------------|
G|-2----5----7-7-|
D|-2-x8-5-x4-7-7-|
A|-0----3----5-5-|
E|---------------|

"Is there something, I don't know..."

e|-------------|
B|-------------|
G|-5----3----5-|
D|-5-x4-3-x4-5-|
A|-7----5----3-|
E|-------------|

e|-----------|
B|-----------|
G|-9----7----|
D|-9-x4-7-x4-|
A|-7----5----|
E|-----------|

"Cafe numbers..."

e|-----------|
B|-----------|
G|-5----7----|
D|-5-x8-7-x8-|
A|-3----5----|
E|-----------|

e|----------------------|
B|----------------------|
G|-----------5-55-7-77--| x2
D|-5-55-2-22-5-55-7-77--|
A|-5-55-2-22-3-33-5-55--|
E|-3-33-0-00------------|

"Shortout socket..."

e|----------------------|
B|----------------------|
G|-----------5555-7777--| x2, palm muted
D|-5555-2222-5555-7777--|
A|-5555-2222-3333-5555--|
E|-3333-0000------------|


e|-----------------|
B|-----------------|
G|-2----5----7-7---|
D|-2-x8-5-x4-7-7-5-|
A|-0----3----5-5-5-|
E|---------------3-|

"Don't they know, don't they know..."

e|----------------------|
B|----------------------|
G|-----------5-55-7-77--| x3
D|-5-55-2-22-5-55-7-77--|
A|-5-55-2-22-3-33-5-55--|
E|-3-33-0-00------------|

e|--------------|
B|--------------|
G|-2----7-------|
D|-2-x8-7-x8--5-|
A|-0----5-----5-|
E|--------------|
Добавлено: 24.04.2016
Другие материалы по этой песне:
  • Аккорды и текст

Страница создана 24.04.2016
http://primanota.ru/joyce-manor/shortout-socket-chords.htm
Привет, Гость.
Предлагаем пройти революционный курс по гитаре.
Подарок от PrimaNota.Ru, забирай!