PrimaNota.ru - самый крупный в мире бесплатный архив песенных текстов, аккордов, табулатур и нот


Joyce Manor - Leather Jacket - таба, видео

Регистрация Запомнить меня
Войти через:  Facebook Google Twitter Vk Yandex Mail.ru

Joyce Manor - Leather Jacket - таба, видео

Печатать
Просмотров: 93
Standard Tuning

[0:00]-[0:11]
|----------------------------------|
|----------------------------------|
|----------------------------------|
|---12-11---11-9---11-9---9-7------|
|---12-11---11-9---11-9---9-7------|
|---10-9----9--7---9--7---7-5------|
|
|----------------------------------|
|----------------------------------|
|----------------------------------|
|---12-11---11-9---11--9--7--5--4--|
|---12-11---11-9---11--9--7--5--4--|
|---10-9----9--7---9---7--5--3--2--|
|
|----------------------------------|
|----------------------------------|
|----------------------------------|
|---12-11---11-9---11-9---9-7------|
|---12-11---11-9---11-9---9-7------|
|---10-9----9--7---9--7---7-5------|
|
|----------------------------------|
|----------------------------------|
|--11\--6~--7----------------------|
|--11\--6~--7----------------------|
|--9\\--4~--5----------------------|
|----------------------------------|

Bass Line
[0:11]-[0:16]
|----------------------------------|
|----------------------------------|
|----------------------------------|
|----------0-----------------------|
|---5------------------------------|
|-----3--5---3--2------------------|

Guitar is palm muted.
[0:17]-[0:28]
|---------|
|---------|
|----7----|
|----7----|
|----5----|
|---------|

Still Palm Muted. Start to open up on the last chord.
[0:28]-[0:40]
|----------------------------------|
|----------------------------------|
|--12-----11-------9------7--------|
|--12-----11-------9------7--------|
|--10x12---9x12----7x12---5x12-----|
|----------------------------------|

Full Strum.
[0:40]-[0:50]
|--------------------------|
|--------------------------|
|---7-----2------4-----2---|
|---7-----2------4-----2---|
|---5x6---0x6----2x6---0x6-|
|--------------------------|
|
|x2


[0:50]-[1:02]
|--------------------------------|
|--------------------------------|
|--12-----11-------9-------12----|
|--12-----11-------9-------12----|
|--10x12---9x12----7x12----10x12-|
|--------------------------------|


[1:02]-[1:13]
|---------|
|----7----|
|----7----|
|----7----|
|----5----|
|---------|

[1:13]-[1:24]
|------------------------------------|
|----------------------7-6-5---------|
|--12-----11-------9-----------7-----|
|--12-----11-------9-----------7-----|
|--10x12---9x12----7x9---------5x12--|
|------------------------------------|

[1:24]-[1:34]
|---------------------------------|
|---------------------------------|
|---------------------------------|
|--12-11-9---11-9-7---9-7-5-444---|
|--12-11-9---11-9-7---9-7-5-444---|
|--10-9--7---9--7-5---7-5-3-222---|
|
|---------------------------------------|
|---------------------------------------|
|---------------------------------------|
|--12-11-9---11-9-7---9-7-12-11-11-11---|
|--12-11-9---11-9-7---9-7-12-11-11-11---|
|--10-9--7---9--7-5---7-5-10-9--9--9----|
|
|------------------------------------------|
|------------------------------------------|
|---------------------------------------7--|
|--12-11-9---11-9-7---9-7-5-4~--2~--6~--7--|
|--12-11-9---11-9-7---9-7-5-4~--2~--6~--5--|
|--10-9--7---9--7-5---7-5-3-2~--0~--4~-----|

Palm Muted.
[1:34]-[1:38]
|---------|
|---------|
|----7----|
|----7----|
|----5----|
|---------|



[1:39-2:01]
|--------7----------------------------7----------------------|
|-----10---10--7--10--7-----7------10---10--7--10--7-----7---|
|---7------------------6--9------7------------------6--9-----|
|------------------------------------------------------------|
|------------------------------------------------------------|
|------------------------------------------------------------|
|
|----------------------------------------------7---------------9--7----------|
|-----10--7---7--------10--7---7-----7--10--7-----10--7-----10------10--7----|
|--7--------9---9---7--------9---9------------------------9------------------|
|----------------------------------------------------------------------------|
|----------------------------------------------------------------------------|
|----------------------------------------------------------------------------|
|
|----------------------------------------9~-9/10~----------------------------|
|-----10--7---7--------10--7---7-----7~-----------10\\-----------------------|
|--7--------9---9---7--------9---9-------------------------------------------|
|----------------------------------------------------------------------------|
|----------------------------------------------------------------------------|
|----------------------------------------------------------------------------|

[2:02-2:16]
|----10----|
|----10----|
|----11----|
|----12----|
|----12----|
|----10----|
Добавлено: 06.10.2013
Другие материалы по этой песне:

Страница создана 07.07.2012
http://primanota.ru/joyce-manor/leather-jacket-chords.htm
Привет, Гость.
Предлагаем пройти революционный курс по гитаре.
Подарок от PrimaNota.Ru, забирай!