PrimaNota.ru - самый крупный в мире бесплатный архив песенных текстов, аккордов, табулатур и нот


Joyce Manor - Constant Nothing - таба, видео

Регистрация Запомнить меня
Войти через:  Facebook Google Twitter Vk Yandex Mail.ru

Joyce Manor - Constant Nothing - таба, видео

Печатать
Просмотров: 82
Constant Nothing
Joyce Manor
jjjddd

standard tuning

intro
e|----------------|
B|-12-----12~~~---|
G|-9-x32--9~~~~---|
D|-11-----11~~~---|
A|-0------0~~~~---|
E|----------------|
hey wait, cough count keep me awake


e|------------------------------------------------------|
B|------------------------------------------------------|
G|-----------------------------------11-11111111111111--|
D|----9-9-9--11-13-11-9------9-9-9----------------------|
A|-11---1111-11-11-11-11--11---1111--9--9-9-9-9-9-9-9---|
E|-0----0-0--0--0--0--0---0----0-0----------------------|


e|-----------------------------|
B|-12~~~~~--------9~~---12~~---|
G|-9~~~~~~---------------------|
D|-11~~~~~---------------------|
A|-0~~~~~~---------------------|
E|-----------------------------|
low key, happy and harmless its so un-alarming


e|------------------------------------------------------|
B|------------------------------------------------------|
G|-----------------------------------11-11111111111111--|
D|----9-9-9--11-13-11-9------9-9-9----------------------|
A|-11---1111-11-11-11-11--11---1111--9--9-9-9-9-9-9-9---|
E|-0----0-0--0--0--0--0---0----0-0----------------------|
i can feel it coming out of your AC vents


e|---------------------------------------|
B|---------------------------------------|
G|---------------------------------------|
D|-4--4-4--4--4--4-4--7--7-7--7--7--7-7--|
A|-4--4-4--4--4--4-4--7--7-7--7--7--7-7--|
E|-2--2-2--2--2--2-2--5--5-5--5--5--5-5--|
and it just wears me out, oh it just wears me out


e|----------------------|
B|-12-------------------|
G|-9-x16--11-----13-----|
D|-11-----13-x8--14-x8--|
A|-0------0------0------|
E|----------------------|


e|------------------------------------------------------|
B|------------------------------------------------------|
G|---------------------------------11-9-9-9-------------|
D|----9-9-9--9--11p9-9--11p9-9-----------------------9--|
A|-11---1111-11------11------11-11----------11-11-11----|
E|-0----0-0--0-------0-------0--0-----------------------|


e|----------------------|
B|-12-------------------|
G|-9-x16--11-----13-----|
D|-11-----13-x8--14-x8--|
A|-0------0------0------|
E|----------------------|


e|------------------------------------------------------|
B|------------------------------------------------------|
G|---------------------------------------11bu-----------|
D|----9--9-9-9--9-------------9--9-9-9------------------|
A|-11-11-111111-0-12-11-9--11-11-111111--9--------------|
E|-0--0--0-0-0----0--0--0--0--0--0-0-0------------------|


e|-----------------------------|
B|-12~~~~~-------12--12-12-12--|
G|-9~~~~~~---------------------|
D|-11~~~~~---------------------|
A|-0~~~~~~---------------------|
E|-----------------------------|
youll get nothing and like it, youll learn to be quiet


e|------------------------------------------------------|
B|------------------------------------------------------|
G|-----------------------------------11-11111111111111--|
D|----9-9-9--11-13-11-9------9-9-9----------------------|
A|-11---1111-11-11-11-11--11---1111--9--9-9-9-9-9-9-9---|
E|-0----0-0--0--0--0--0---0----0-0----------------------|
its a wonderful way to behave in the company of someone you cant tolerate
oh oh just


e|-----------------------------|
B|-12~~~~~-----------9~~-------|
G|-9~~~~~~---------------------|
D|-11~~~~~---------------------|
A|-0~~~~~~---------------------|
E|-----------------------------|
hold on, i said it like 30 times in a row


e|------------------------------------------------------|
B|------------------------------------------------------|
G|-----------------------------------11-11111111111111--|
D|----9-9-9--11-13-11-9------9-9-9----------------------|
A|-11---1111-11-11-11-11--11---1111--9--9-9-9-9-9-9-9---|
E|-0----0-0--0--0--0--0---0----0-0----------------------|
                                            and it just

e|---------------------------------------|
B|---------------------------------------|
G|---------------------------------------|
D|-4--4-4--4--4--4-4--7--7-7--7--7--7-7--|
A|-4--4-4--4--4--4-4--7--7-7--7--7--7-7--|
E|-2--2-2--2--2--2-2--5--5-5--5--5--5-5--|
   wears me out, oh it just wears me out


e|----------|
B|----------|
G|----------|
D|----------|
A|-7-x32----|
E|-0--------|


e|---------------------------------------|
B|---------------------------------------|
G|---------------------------------------|
D|-4--4-4--4--4--4-4--7--7-7--7--7--7-7--|
A|-4--4-4--4--4--4-4--7--7-7--7--7--7-7--|
E|-2--2-2--2--2--2-2--5--5-5--5--5--5-5--|
and it just wears me out, oh it just wears me out


e|------------------------------+5---------------------------------|
B|------------------------------+5---------------------------------|
G|------------------------------+5---------------------------------|
D|--6------5-5-------6------5-5-+5--------6-----5-5------6-----5-5-|
A|--4--7-7-3-3-2-2---4--7-7-3-3----2222---4-7-7-3-3-2-2--4-7-7-3-3-|
E|-----5-5-----0-0------5-5--------0000-----5-5-----0-0----5-5-----|
Добавлено: 24.12.2013
Другие материалы по этой песне:
  • Аккорды и текст

Страница создана 24.12.2013
http://primanota.ru/joyce-manor/constant-nothing-chords.htm
Привет, Гость.
Предлагаем пройти революционный курс по гитаре.
Подарок от PrimaNota.Ru, забирай!