PrimaNota.ru - самый крупный в мире бесплатный архив песенных текстов, аккордов, табулатур и нот


Joyce Manor - Chumped - таба, видео

Регистрация Запомнить меня
Войти через:  Facebook Google Twitter Vk Yandex Mail.ru

Joyce Manor - Chumped - таба, видео

Печатать
Просмотров: 68
-------------------------------------------------------------------------------
                                                    Chumped - Joyce Manor
-------------------------------------------------------------------------------

Tabbed by: Sigilyph


Tuning: Standard

Intro:
e|----------------|------------------|--------------------------------------|
B|7777777777777777|7\6666666\3333----|--------------------------------------|
G|xxxxxxxxxxxxxxxx|x-xxxxxxx-xxxx----|--------------------------------------|
D|4444444444444444|4\3333333\0000----|--------------------------------------|
A|----------------|------------------|--------------------------------------|
E|----------------|------------------|--------------------------------------|

e|----------------|----------------|--------------|-----------------|-------|
B|4-4-4444-44-4444|4-4-4444-44-9999|--------------|-----------------|-------|
G|4-4-4444-44-4444|4-4-4444-44-xxxx|4-4-444-4-46-6|4-44-4444-44-4444|-------|
D|2-2-2222-22-2222|2-2-2222-22-6666|4-4-444-4-46-6|4-44-4444-44-4444|-------|
A|----------------|----------------|2-2-222-2-24-4|2-22-2222-22-2222|-------|
E|----------------|----------------|--------------|-----------------|-------|

e|----------------|----------------|--------------|-----------------|-------|
B|4-4-4444-44-4444|4-4-4444-44-9999|--------------|-----------------|-------|
G|4-4-4444-44-4444|4-4-4444-44-xxxx|4-4-444-4-46-6|4-44-4444-44-4444|-------|
D|2-2-2222-22-2222|2-2-2222-22-6666|4-4-444-4-46-6|4-44-4444-44-4444|-------|
A|----------------|----------------|2-2-222-2-24-4|2-22-2222-22-2222|-------|
E|----------------|----------------|--------------|-----------------|-------|

Verse:
e|----------------|----------------|----------------|----------------|------|
B|4---------------|----------------|----------------|----------------|------|
G|4---------------|----------------|4---------------|----------------|------|
D|2---------------|4---------------|2---------------|4---------------|------|
A|----------------|2---------------|----------------|2---------------|------|
E|----------------|----------------|----------------|----------------|------|

e|----------------|-----------------|----------------|----------------|-----|
B|---4--4----4--4-|---4--4-----4--4-|----------------|----------------|-----|
G|--4--4-4--4--4-4|--4--4--4--4--4-4|---4--4----4--4-|---4--4----4--4-|-----|
D|2-------2-------|2--------2-------|--4--4-4--4--4-4|--4--4-4--4--4-4|-----|
A|----------------|-----------------|2-------2-------|2-------2-------|-----|
E|----------------|-----------------|----------------|----------------|-----|

e|----------------|-----------------|----------------|----------------|-----|
B|---4--4----4--4-|---4--4-----4--4-|----------------|----------------|-----|
G|--4--4-4--4--4-4|--4--4--4--4--4-4|---4--4----4--4-|---4--4----4--4-|-----|
D|2-------2-------|2--------2-------|--4--4-4--4--4-4|--4--4-4--4--4-4|-----|
A|----------------|-----------------|2-------2-------|2-------2-------|-----|
E|----------------|-----------------|----------------|----------------|-----|

Chorus:
e|----------------|----------------|-----------------|-----------------|----|
B|----------------|----------------|-----------------|-----------------|----|
G|----------------|----------------|4-44-4444-44-4444|4-44-4444-44-4444|----|
D|6-66-6666-66-666|2-22-2222-22-222|4-44-4444-44-4444|4-44-4444-44-4444|----|
A|6-66-6666-66-666|2-22-2222-22-222|2-22-2222-22-2222|2-22-2222-22-2222|----|
E|4-44-4444-44-444|0-00-0000-00-000|-----------------|-----------------|----|

e|----------------|----------------|-----------------|-----------------|----|
B|----------------|----------------|-----------------|-----------------|----|
G|----------------|----------------|4-44-4444-44-4444|4-44-4444-44-4444|----|
D|6-66-6666-66-666|2-22-2222-22-222|4-44-4444-44-4444|4-44-4444-44-4444|----|
A|6-66-6666-66-666|2-22-2222-22-222|2-22-2222-22-2222|2-22-2222-22-2222|----|
E|4-44-4444-44-444|0-00-0000-00-000|-----------------|-----------------|----|

e|----------------|----------------|-----------------|-----------------|----|
B|----------------|----------------|-----------------|-----------------|----|
G|----------------|----------------|4-44-4444-44-4444|4-44-4444-44-4444|----|
D|6-66-6666-66-666|2-22-2222-22-222|4-44-4444-44-4444|4-44-4444-44-4444|----|
A|6-66-6666-66-666|2-22-2222-22-222|2-22-2222-22-2222|2-22-2222-22-2222|----|
E|4-44-4444-44-444|0-00-0000-00-000|-----------------|-----------------|----|

e|----------------|----------------|-----------------|-----------------|----|
B|----------------|----------------|-----------------|-----------------|----|
G|----------------|----------------|4-44-4444-44-4444|4-44-4444-44-4444|----|
D|6-66-6666-66-666|2-22-2222-22-222|4-44-4444-44-4444|4-44-4444-44-4444|----|
A|6-66-6666-66-666|2-22-2222-22-222|2-22-2222-22-2222|2-22-2222-22-2222|----|
E|4-44-4444-44-444|0-00-0000-00-000|-----------------|-----------------|----|

Outro:
e|----------------|----------------|---------------|----------------|-------|
B|--------4-------|----------------|---------------|----------------|-------|
G|--4-------------|--4-----4-------|---------------|----------------|-------|
D|6-----6---------|2-----2---------|--------4------|2-------1-------|-------|
A|----------------|----------------|2--------------|----------------|-------|
E|----------------|----------------|---------------|----------------|-------|

e|----------------|----------------|---------------|----------------|-------|
B|--------4-------|----------------|--------7--(7)/|9--(9)/12-------|-------|
G|--4-------------|--4-----4-------|--------x------|x------x--------|-------|
D|6-----6---------|2-----2---------|--------4--(4)/|6--(6)/9--------|-------|
A|----------------|----------------|2--------------|----------------|-------|
E|----------------|----------------|---------------|----------------|-------|

e|----------------|----------------|--------------|-----------------|-------|
B|4-4-4444-44-4444|4-4-4444-44-9999|--------------|-----------------|-------|
G|4-4-4444-44-4444|4-4-4444-44-xxxx|4-------------|-----------------|-------|
D|2-2-2222-22-2222|2-2-2222-22-6666|4-------------|-----------------|-------|
A|----------------|----------------|2-------------|-----------------|-------|
E|----------------|----------------|--------------|-----------------|-------|


************************************

| /   slide up
| \   slide down
| h   hammer-on
| p   pull-off
| ~   vibrato
| +   harmonic
| x   Mute note
| b   Bend
| pb  Pre-bend
| br  Bend release
| pbr Pre-bend release
| brb Bend release bend

************************************
Добавлено: 20.02.2014
Другие материалы по этой песне:
  • Аккорды и текст

Страница создана 20.02.2014
http://primanota.ru/joyce-manor/chumped-chords.htm
Привет, Гость.
Предлагаем пройти революционный курс по гитаре.
Подарок от PrimaNota.Ru, забирай!