PrimaNota.ru - самый крупный в мире бесплатный архив песенных текстов, аккордов, табулатур и нот


Joyce Jonathan - Bien Trop Simple - таба, видео

Регистрация Запомнить меня
Войти через:  Facebook Google Twitter Vk Yandex Mail.ru

Joyce Jonathan - Bien Trop Simple - таба, видео

Печатать
Просмотров: 131
Уроки эстрадного вокала в Санкт-Петербурге
-------------------------------------------------------------------------
BIEN TROP SIMPLE – Joyce Jonathan
-------------------------------------------------------------------------
Tabbed by: Kengus

Standard tuning
Capo on first fret!

INTRO
   Em       C        Em*
e|-------------------------3---|
B|--------------1p0------5-5---|
G|-------0----0--------4---4---|
D|-----2-----------------------|  x2
A|---2------3------------------|
E|-0-----------------0---------|

VERSE1
   Em       C        Em*       Em       C        Em*       C      (Cmaj7)
e|-------------------------3---------------------------3-----------------|
B|--------------1p0------5-5----------------1p0------5-5---------1-0-----|
G|-------0----0--------4---4---------0----0--------4---4-------0---------|
D|-----2---------------------------2-------------------------2-----------|
A|---2------3--------------------2------3------------------3-------------|
E|-0-----------------0---------0-----------------0-----------------------|
   B7        C       Cmaj7    B7       B11       B7
e|-------2--------------------------2--------0---2---|
B|-------0---------1-------0--------0--------0---0---|
G|-----2----0----0-------0--------2--------2---2-----|
D|---1---------2-------2--------1--------1-----------|
A|-2---------3-------3--------2--------2-------------|
E|---------------------------------------------------|

VERSE2
   Em       Cmaj7    Em*       Em       C        Em*       C
e|-------------------------3---------------------------3-----------------|
B|-------0--------0------5-5----------------1p0------5-5---------1-------|
G|-----0--------0------4---4---------0----0--------4---4-------0---------|
D|---2--------2--------------------2-------------------------2-----------|
A|----------3--------------------2------3------------------3-------------|
E|-0-----------------0---------0-----------------0-----------------------|
   B7       C           D
e|----------------------------2----0-----2---|
B|-------0--------1---------3--------3-------|
G|-----2--------0----0----2------------2-----|
D|---1--------2---------0--------0-----------|
A|-2--------3--------------------------------|
E|-------------------------------------------|

PRE-CHORUS
   C                D             Cadd9             D            Dsus4 D
e|------------------------2-------------------------------2--2-----3---2-|
B|-------1-----0--------3---3------------3-----1--------3------3---3---3-|
G|-----0---0-----0----2-------2--------0---0-----0----2----------2-------|
D|---2-------2------0-----------0----2-------2------0--------------------|
A|-3-------------------------------3-------------------------------------|
E|-----------------------------------------------------------------------|

CHORUS
   G                C                Em       G        C
e|-----------------------------------------------------------------------|
B|-------0-------0--------1-----0----------0--------0--------1-------1---|
G|-----0---0---0--------0---0-----0------0--------0--------0---0---0-----|
D|---0-------0--------2-------2--------2--------0--------2-------2-------|
A|------------------3----------------------------------3-----------------|
E|-3---------------------------------0--------3--------------------------|
   Em               C                Em       G        C        Em
e|-----------------------------------------------------------------------|
B|-------0-------0--------1-----0----------0--------0--------1--------0--|
G|-----0---0---0--------0---0-----0------0--------0--------0--------0----|
D|---2-------2--------2-------2--------2--------0--------2--------2------|
A|------------------3----------------------------------3-----------------|
E|-0---------------------------------0--------3-----------------0--------|
   D
e|-------2----0-----2---|
B|-----3--------3-------|
G|---2------------2-----|
D|-0-------0------------|
A|----------------------|
E|----------------------|

*************************

INTRO
Em  C  Em*  x2

VERSE1
Em         C       Em*   Em      C         Em*
Il la regardait marcher, je le regardais aller
C                      B7      C   (Cmaj7)            B7   B11  B7
Toujours ses yeux se posaient, vers moi parfois j'espérais

VERSE2
Em     Cmaj7      Em*  Em        C         Em*
Je le regardais aller, il la regardait marcher
C                       B7     C                      D
Toujours ses yeux se posaient, vers moi parfois je voulais

PRE-CHORUS
   C         D            Cadd9   D             Dsus4 D
En moi, je désespérais, et toi, tu la cherchais

CHORUS
   G             C                           Em
Et c'est quand il te plait qu'il va t'abandonner
      G           C
C'est trop simple
     Em               C                       Em  
Mais c'est quand tu lui plais tu vas l'abandonner
      G                  C                 Em       D
C'est trop simple, c'est trop simple, bien trop simplet

VERSE3
Em             C  Em* Em         C         Em*
Je cherchais à éviter son regard sur moi posé
C                 B7     C                  D
Et déjà plus n'existait, ce qui avait commencé

PRE-CHORUS
   C         D            Cadd9   D             Dsus4  D
Et moi, je désespérais, et toi, tu me cherchais

[www.ultimate-guitar.com]

CHORUS
     G             C                           Em
Mais c'est quand il te plait qu'il va t'abandonner
      G           C
C'est trop simple
     Em               C                       Em  
Mais c'est quand tu lui plais tu vas l'abandonner
      G                  C                 Em       D
C'est trop simple, c'est trop simple, bien trop simplet

CHORUS
     G             C                           Em
Mais c'est quand il te plait qu'il va t'abandonner
      G           C
C'est trop simple
     Em               C                       Em  
Mais c'est quand tu lui plais tu vas l'abandonner
      G                  C                 Em       D
C'est trop simple, c'est trop simple, bien trop simplet.

OUTRO
Em  C  Em*  x4

=========================================================================
Comment, rate, appreciate!
Добавлено: 01.07.2012
Другие материалы по этой песне:
  • Аккорды и текст

Страница создана 01.07.2012
http://primanota.ru/joyce-jonathan/bien-trop-simple-chords.htm
Привет, Гость.
Предлагаем пройти революционный курс по гитаре.
Подарок от PrimaNota.Ru, забирай!