PrimaNota.ru - самый крупный в мире бесплатный архив песенных текстов, аккордов, табулатур и нот


Joy Zipper - Go Tell The World - таба, видео

Регистрация Запомнить меня
Войти через:  Facebook Google Twitter Vk Yandex Mail.ru

Joy Zipper - Go Tell The World - таба, видео

Печатать
Просмотров: 81
GO TELL THE WORLD - Joy Zipper

Go tell the world,
tell it I'm on fire,
my wings are burning speak through me won't you please go tell the world,
we've been here for too long,
and now we're gone, oh so gone,
so tell the world

0:42
e|-----------------------------------------------------------------|
B|-----------------------------------------------------------------|
G|---------2--------4---------2~-----------------------------------|
D|---------2--------4---------2~-----------------------------------|
A|---------0--------2---------0~-----------------------------------|
E|-----------------------------------------------------------------|

Tell it to go on

0:45
e|-----------------------------------------------------------------|
B|-----------------------------------------------------------------|
G|----------------------2--2---4--4----2---------------------------|
D|---4--4--4--4-4-4-----2--2---4--4----2---------------------------|        X2
A|---4--4--4--4-4-4-----0--0---2--2----0---------------------------|
E|---2--2--2--2-2-2------------------------------------------------|

0:50
e|------------------------------------------------------------------|
B|------------------------------------------------------------------|
G|-----------------------------2---2-----4--------------------------|
D|---4--4--4--4---4---4---4----2---2-----4--------------------------|       X2
A|---4--4--4--4---4---4---4----0---0-----2--------------------------|
E|---2--2--2--2---2---2---2-----------------------------------------|

0:55
e|------------------------------------------------------------------|
B|------------------------------------------------------------------|
G|------------------------------------------------------------------|
D|--4--4--4--4---4---4---4---4---4-----4----------------------------|        X2
A|--4--4--4--4---4---4---4---4---4-----4----------------------------|
E|--2--2--2--2---2---2---2---2---2-----2----------------------------|

0:59
e|-------------------------------------------------------------------|
B|-------------------------------------------------------------------|
G|--4--4--4--4---4---4---4---4---4-----4-----------------------------|
D|--4--4--4--4---4---4---4---4---4-----4-----------------------------|         X2
A|--2--2--2--2---2---2---2---2---2-----2-----------------------------|
E|-------------------------------------------------------------------|

1:04
e|-----------------------------------------------------------------|
B|-----------------------------------------------------------------|
G|----------------------2--2---4--4----2---------------------------|
D|---4--4--4--4-4-4-----2--2---4--4----2---------------------------|
A|---4--4--4--4-4-4-----0--0---2--2----0---------------------------|
E|---2--2--2--2-2-2------------------------------------------------|

1:06
e|-----------------------------------------------------------------|
B|-----------------------------------------------------------------|
G|-----------------------------------------------------------------|
D|--4--4--4--4---4---4---4---4---4-----4---------------------------|
A|--4--4--4--4---4---4---4---4---4-----4---------------------------|
E|--2--2--2--2---2---2---2---2---2-----2---------------------------|

1:09
e|-----------------------------------------------------------------|
B|-----------------------------------------------------------------|
G|--4--4--4--4---4---4---4---4---4-----4---------------------------|
D|--4--4--4--4---4---4---4---4---4-----4---------------------------|
A|--2--2--2--2---2---2---2---2---2-----2---------------------------|
E|-----------------------------------------------------------------|

1:11
e|-----------------------------------------------------------------|
B|-----------------------------------------------------------------|
G|--4--4--4--4---4---------2--2------------------------------------|
D|--4--4--4--4---4---------2--2------6--6--------------------------|
A|--2--2--2--2---2---------0--0------6--6--------------------------|
E|-----------------------------------4--4--------------------------|

1:13
e|-----------------------------------------------------------------|
B|-----------------------------------------------------------------|
G|----------------------2--2---4--4----2---------------------------|
D|---4--4--4--4-4-4-----2--2---4--4----2---------------------------|
A|---4--4--4--4-4-4-----0--0---2--2----0---------------------------|
E|---2--2--2--2-2-2------------------------------------------------|

1:16
e|-----------------------------------------------------------------|
B|-----------------------------------------------------------------|
G|-----------------------------------------------------------------|
D|--4--4--4--4---4---4---4---4---4-----4---------------------------|
A|--4--4--4--4---4---4---4---4---4-----4---------------------------|
E|--2--2--2--2---2---2---2---2---2-----2---------------------------|

1:18
e|-----------------------------------------------------------------|
B|-----------------------------------------------------------------|
G|--4--4--4--4--4-------2--------4---------2~----------------------|
D|--4--4--4--4--4------2--------4---------2~-----------------------|
A|--2--2--2--2--2------0--------2---------0~-----------------------|
E|-----------------------------------------------------------------|

1:23
e|-----------------------------------------------------------------|
B|-----------------------------------------------------------------|
G|----------------------2--2---4--4----2---------------------------|
D|---4--4--4--4-4-4-----2--2---4--4----2---------------------------|        X4
A|---4--4--4--4-4-4-----0--0---2--2----0---------------------------|
E|---2--2--2--2-2-2------------------------------------------------|

1:32
e|-------------------------------------------------------------------|
B|-------------------------------------------------------------------|
G|--4--4--4--4---4---4---4---4---4-----4-----------------------------|
D|--4--4--4--4---4---4---4---4---4-----4-----------------------------|         X2
A|--2--2--2--2---2---2---2---2---2-----2-----------------------------|
E|-------------------------------------------------------------------|

1:37
e|-----------------------------------------------------------------|
B|-----------------------------------------------------------------|
G|----------------------2--2---4--4----2---------------------------|
D|---4--4--4--4-4-4-----2--2---4--4----2---------------------------|
A|---4--4--4--4-4-4-----0--0---2--2----0---------------------------|
E|---2--2--2--2-2-2------------------------------------------------|

1:40
e|-----------------------------------------------------------------|
B|-----------------------------------------------------------------|
G|-----------------------------------------------------------------|
D|--4--4--4--4---4---4---4---4---4-----4---------------------------|
A|--4--4--4--4---4---4---4---4---4-----4---------------------------|
E|--2--2--2--2---2---2---2---2---2-----2---------------------------|

1:42
e|-----------------------------------------------------------------|
B|-----------------------------------------------------------------|
G|--4--4--4--4---4---4---4---4---4-----4---------------------------|
D|--4--4--4--4---4---4---4---4---4-----4---------------------------|
A|--2--2--2--2---2---2---2---2---2-----2---------------------------|
E|-----------------------------------------------------------------|

1:44
e|-----------------------------------------------------------------|
B|-----------------------------------------------------------------|
G|--4--4--4--4---4---------2--2------------------------------------|
D|--4--4--4--4---4---------2--2------6--6--------------------------|
A|--2--2--2--2---2---------0--0------6--6--------------------------|
E|-----------------------------------4--4--------------------------|

1:47
e|-----------------------------------------------------------------|
B|-----------------------------------------------------------------|
G|----------------------2--2---4--4----2---------------------------|
D|---4--4--4--4-4-4-----2--2---4--4----2---------------------------|
A|---4--4--4--4-4-4-----0--0---2--2----0---------------------------|
E|---2--2--2--2-2-2------------------------------------------------|

1:49
e|-----------------------------------------------------------------|
B|-----------------------------------------------------------------|
G|-----------------------------------------------------------------|
D|--4--4--4--4---4---4---4---4---4-----4---------------------------|
A|--4--4--4--4---4---4---4---4---4-----4---------------------------|
E|--2--2--2--2---2---2---2---2---2-----2---------------------------|

1:51
e|-----------------------------------------------------------------|
B|-----------------------------------------------------------------|
G|--4--4--4--4--4------2--------4---------2~-----------------------|
D|--4--4--4--4--4------2--------4---------2~-----------------------|
A|--2--2--2--2--2------0--------2---------0~-----------------------|
E|-----------------------------------------------------------------|

Tell It To Go On

Lyrics:
Go tell the world,
tell it I'm on fire,
my wings are burning speak through me won't you please go tell the world,
we've been here for too long,
and now we're gone, oh so gone,
so tell the world, tell it to go on

Go tell it right,
one up one down,
me I'm doin circles and you you're doing lines,
go tell the world,
you stayed awake too long,
and now we're gone,
oh so gone,
so tell the world,
tell it to go on

This is not a happy song,
I wrote it to remember this,
I'm sorry but i have to say that every single word it's true it's true,
and now we're gone,
oh so gone,
so tell the world,
tell it to go on
Добавлено: 23.09.2015
Другие материалы по этой песне:
  • Аккорды и текст

Страница создана 23.09.2015
http://primanota.ru/joy-zipper/go-tell-world-chords.htm
Привет, Гость.
Предлагаем пройти революционный курс по гитаре.
Подарок от PrimaNota.Ru, забирай!