PrimaNota.ru - самый крупный в мире бесплатный архив песенных текстов, аккордов, табулатур и нот


Joy Division - The Only Mistake - текст песни, бас-таба, видео

Регистрация Запомнить меня
Войти через:  Facebook Google Twitter Vk Yandex Mail.ru

Joy Division - The Only Mistake - текст песни, бас-таба, видео

Печатать
Просмотров: 170
Уроки эстрадного вокала в Санкт-Петербурге
Авторы: Ian Curtis, Bernard Sumner, Peter Hook, Stephen Morris

Artist: Joy Division
  song: The Only Mistake

Tuning: Normal

  Riff 1                                                    
G|-------------------------|-------------------------|
D|-------------------------|-------------------------|
A|-5---5---5---5---5---5---|-7---7---7---7---7---7---|
E|-------------------------|-------------------------|

G|-------------------------|-------------------------|
D|-------------------------|-------------------------|
A|-8---8---8---8---8---8---|-10--101010--10--10--10--|
E|-------------------------|-------------------------|x10

Made the fatal mistake,
Like I did once before,
A tendency just to take,
Till the purpose turned sour,

(Pause and let ring...)

  Riff 2                                                    
G|-------------------------|-------------------------|
D|-------------------------|-------------------------|
A|-5---5---5---5---5---5---|-5---5---5---5---5---3---|
E|-------------------------|-------------------------|

G|-------------------------|-------------------------|
D|-------------------------|-------------------------|
A|-5---5---5---5---5---5---|-5---5---5---5---5---3---|
E|-------------------------|-------------------------|

G|-------------------------|-------------------------|
D|-------------------------|-------------------------|
A|-------------------------|-------------------------|
E|-5---5---5---5---5---5---|-5---5---5---5---5---3---|

G|-------------------------|-------------------------|
D|-------------------------|-------------------------|
A|-------------------------|-------------------------|
E|-5---5---5---5---5---5---|-5---5---5---5---5---3---|x2

Strain, take the strain, these days we love,
Strain, take the strain, these days we love.

(Riff 1) x6

Yeah, the only mistake, was that you ran away,
Avenues lined with trees, strangled words for the day,

  Riff 3                                                    
G|-7---7-7-7---7---7---7---|-9---9-9-9---9---9---9---|
D|-7---7-7-7---7---7---7---|-9---9-9-9---9---9---9---|
A|-------------------------|-------------------------|
E|-------------------------|-------------------------|

G|-11--111111--11--11--11--|-12--121212--12--12--12--|
D|-11--111111--11--11--11--|-12--121212--12--12--12--|
A|-------------------------|-------------------------|
E|-------------------------|-------------------------|x4

Yeah, the only mistake, like I made once before,
Yeah, the only mistake, could have made it before.

G|-12--121212--12--12--12--|
D|-12--121212--12--12--12--|
A|-------------------------|
E|-------------------------|x3

(Pause and let ring...)


(Riff 2) x2 

Strain, take the strain, these days we love,
Strain, take the strain, these days we love.

  Riff 4                                                    
G|-------------------------|-------------------------|
D|-------------------------|-------------------------|
A|-5---5---5---5---5---3---|-5---5---5---5---3---0---|
E|-------------------------|-------------------------|x3

(Riff 1) x6
And the only mistake, led to rumours unfound,
Led to pressures unknown, different feelings and sounds,
Yeah the only mistake, like I made once before,

(Riff 2) x4
Yeah, the only mistake, could have made it before.

G|-12--121212--12--121212--|-12--121212--12--121212--|
D|-12--121212--12--121212--|-12--121212--12--121212--|
A|-------------------------|-------------------------|
E|-------------------------|-------------------------|

Добавлено: 05.06.2016
Другие материалы по этой песне:
  • Аккорды и текст

Страница создана 15.05.2012
http://primanota.ru/joy-division/the-only-mistake-chords.htm
Привет, Гость.
Предлагаем пройти революционный курс по гитаре.
Подарок от PrimaNota.Ru, забирай!