PrimaNota.ru - самый крупный в мире бесплатный архив песенных текстов, аккордов, табулатур и нот


Joy Division - Glass - аккорды и текст, таба, видео

Регистрация Запомнить меня
Войти через:  Facebook Google Twitter Vk Yandex Mail.ru

Joy Division - Glass - аккорды и текст, таба, видео

Печатать
Просмотров: 127
Уроки эстрадного вокала в Санкт-Петербурге
Авторы: Ian Curtis, Bernard Sumner, Peter Hook, Stephen Morris

Glass
Joy Division
Joy Division - 'Glass'
Album: Substance
(Curtis, Summner, Hook, Morris)
Tabbed by gavin (venus_in_furs@postmaster.co.uk)
This tab is all my own work.

The timing of the picking and strumming on this song is quite important and varies in a few little ways which i've tried to replicate in this tab. Listen closely to the song and its pretty easy.

e -------------------------------x-x-x-x-x-x-x-x-x-x
b -------------------------------x-x-x-x-x-x-x-x-x-x
g -------------------------------7-7-7-7-7-7-7-7-7-7
d --8-7----8-7---8-7----8-7------7-7-7-7-7-7-7-7-7-7
a ------6-----6------6-----6-----5-5-5-5-5-5-5-5-5-5
E -------------------------------5-5-5-5-5-5-5-5-5-5


e -------------------------------x-x-x-x-x-x-x-x-x-x
b -------------------------------x-x-x-x-x-x-x-x-x-x
g -------------------------------8-7-7-7-7-8-7-7-7-7
d ----7-8---7-8----7-8---7-8-----8-7-7-7-7-8-7-7-7-7
a --6------6-----6------6--------6-5-5-5-5-6-5-5-5-5
E -------------------------------6-5-5-5-5-6-5-5-5-5

Verse

e --7--7-----7-7
b --0--0-----0-0
Some variations on this bit at random

After first verse

e --x-x-x-x--x-x-x-x-x
b --x-x-x-x--x-x-x-x-x
g --7-7-7-7--8-7-7-7-7
d --7-7-7-7--8-7-7-7-7
a --5-5-5-5--6-5-5-5-5
E --5-5-5-5--6-5-5-5-5

Verse again

At "C it again and again.."

e --x-x-x-------------------------------x-x-x-x-x-x-x-x-x-x
b --x-x-x-------------------------------x-x-x-x-x-x-x-x-x-x
g --7-7-7-------------------------------7-7-7-7-7-7-7-7-7-7
d --7-7-7--8-7----8-7---8-7----8-7------7-7-7-7-7-7-7-7-7-7
a --5-5-5------6-----6------6-----6-----5-5-5-5-5-5-5-5-5-5
E --5-5-5-------------------------------5-5-5-5-5-5-5-5-5-5

e -------------------------------x-x-x-x-x-x-x-x-x-x
b -------------------------------x-x-x-x-x-x-x-x-x-x
g -------------------------------8-7-7-7-7-8-7-7-7-7
d ----7-8---7-8----7-8---7-8-----8-7-7-7-7-8-7-7-7-7
a --6------6-----6------6--------6-5-5-5-5-6-5-5-5-5
E -------------------------------6-5-5-5-5-6-5-5-5-5


Verse riff quietly with some variations over "anytime, thats your..."

Becomes

e --x-x-x-x---x-x-x-x
b --x-x-x-x---x-x-x-x
g --7-7-7-7---9-9-9-9
d --7-7-7-7---9-9-9-9
a --5-5-5-5---7-7-7-7
E --5-5-5-5---7-7-7-7

Repeat, fade out.
     
Добавлено: 03.10.2013
Другие материалы по этой песне:
  • Аккорды и текст

Страница создана 07.03.2012
http://primanota.ru/joy-division/glass-chords.htm
Привет, Гость.
Предлагаем пройти революционный курс по гитаре.
Подарок от PrimaNota.Ru, забирай!