PrimaNota.ru - самый крупный в мире бесплатный архив песенных текстов, аккордов, табулатур и нот


Joy Division - Day of The Lords - аккорды и текст, видео

Регистрация Запомнить меня
Войти через:  Facebook Google Twitter Vk Yandex Mail.ru

Joy Division - Day of The Lords - аккорды и текст, видео

Печатать
Просмотров: 275
Авторы музыки: Joy Division
Авторы текста: Joy Division
Day of The Lords
Joy Division
Joy Division - 'Day of the Lords'
Album: Unknown Pleasures
(Curtis, Hook, Summner, Morris)
Tabbed by gavin (venus_in_furs@postmaster.co.uk)
This tab is all my own work.

\= slide down

Intro

e --0-0-0-0-0-0-0--0-0-0-0-0-0-0--0-0-0-0-0-0-0--0-0-0-0-0-0-0--
b --5-5-0-5-5-0-5--5-5-0-5-5-0-5--5-5-0-5-5-0-5--5-5-0-5-5-0-5--
g --4-4-4-4-4-4-4--4-4-4-4-4-4-4--4-4-4-4-4-4-4--4-4-4-4-4-4-4--

e ----------------0---------0---------
b --5--5----5--5--5---5--5--5---5--5--
g ---4--4----4--4-4----4--4-4----4--4-


Verse riff

e --x--------0--------xxxxxxx-----------------------------
b --x--------0--------xxxxxxx-----------------------------
g --1--Let---1--Let---1111111-----------------------------
d --2--ring--2--ring--2222222-----------------------------
a --2--------2--------2222222----2---2---2---2------------
E --0--------x--------0000000------3---3---3---3--3\2-----
                     mute with
                    right hand

Chorus
"Where will it...."

e --2-2222222-0000000--0
b --3-3333333-1111111--0
g --2-2222222-0000000--1   Let
d ---------------------2   ring
a ---------------------2
E ---------------------0


Over the bass climb in the middle, guitar plays the intro riff again

Outro

e --7777-666-444444--7777-666-444444--0000-000-000000
b --8888-777-555555--8888-777-555555--8888-777-555555
g --7777-666-444444--7777-666-444444--7777-666-444444

e --3---------2---------0
b --3---------2---------0
g --4---------3---------1  Let ring
d --5---------4---------2
a --5---------4---------2
E --3---------2---------0
     
Добавлено: 06.09.2013
Другие материалы по этой песне:
  • Аккорды и текст

Страница создана 18.04.2012
http://primanota.ru/joy-division/day-of-the-lords-chords.htm
Привет, Гость.
Предлагаем пройти революционный курс по гитаре.
Подарок от PrimaNota.Ru, забирай!