PrimaNota.ru - самый крупный в мире бесплатный архив песенных текстов, аккордов, табулатур и нот


Journey - In The Morning Day - текст песни, бас-таба, видео

Регистрация Запомнить меня
Войти через:  Facebook Google Twitter Vk Yandex Mail.ru

Journey - In The Morning Day - текст песни, бас-таба, видео

Печатать
Просмотров: 89
Авторы: Ross Valory, Gregg Rolie

In The Morning Day
by Journey

Intro
  Wx3
|------------|-----------------||
|------------|-----------------||
|------------|-------------0-2-||
|------------|-----------3-----||


Verse I

|-------------|--------------------------|
|----------2--|-3--2-2-3-5---------------|
|-3--2--0-----|------------5---------0-2-|
|-------------|--------------3-(3)-3-----|


|-------------|---------------------------|
|-------------|--------------5-(5)--------|
|-3--2--0-----|------------5-------5-0-2--|
|----------0--|-1--0-0-1S3----------------|


|---5-4-----2-----|-------------|------------5--(5)---7-8-|
|---------------2-|-3--2--0-----|----------5--------------|
|-3-----2-0-------|----------2--|-3----(3)----------------|
|-------------0---|-------------|-------------------------|


|-9--(9)-----------------------------||
|----------10------------------------||
|-------------10-----------------7---||
|----------------8-(8)-9-10-(10)-----||


Chorus I
                              |--3--|         |----5-----|
|------(7)s12-13-14-------------------|-------9-10-11------------|
|-------------------13-(13)\----------|---------------10---------|
|-8-----------------------------------|------------------9-------|
|----------------------------13-12-11-|-10-----------------10----|


|----------------------12-12-(12)-12-12-12-12-(12)\-|----------------------12-12-(12)-(12)\--------||
|---------5-5-5-5-(5)/------------------------------|---------5-5-5-5-(5)/-------------------------||
|---------------------------------------------------|-----------------------------------------0-2--||
|-3-3-(3)-------------------------------------------|-3-3-(3)-------------------------------3------||


Verse II

|-------------|--------------------------|
|----------2--|-3--2-2-3-5---------------|
|-3--2--0-----|------------5-------0---2-|
|-------------|--------------3-(3)-------|


|-------------|---------------------------|
|-------------|--------------5-(5)--------|
|-3--2--0-----|------------5-------5-0-2--|
|----------0--|-1--0-0-1S3----------------|


|---5-4-----2-----|-------------|
|---------------2-|-3--2--0-----|
|-3-----2-0-------|----------2--|
|-------------0---|-------------|


|------------5-(5)/-7-8-7----7-|-9---------------------------||
|----------5--------------10---|----10---------10------------||
|-3----(3)---------------------|-------10---10----10---6-7---||
|------------------------------|----------8----------8-------||


Chorus II
                              |--3--|         |----5-----|
|------(7)s12-13-14-------------------|-------9-10-11------------|
|-------------------13-(13)\----------|---------------10---------|
|-8-----------------------------------|------------------9-------|
|----------------------------13-12-11-|-10-----------------10----|


|----------------------12-12-(12)-12-12-12-12-(12)\-|----------------------12-12-(12)-(12)\----||
|---------5-5-5-5-(5)/------------------------------|---------5-5-5-5-(5)/---------------------||
|---------------------------------------------------|------------------------------------------||
|-3-3-(3)-------------------------------------------|-3-3-(3)----------------------------------||


Interlude/Keyboard Solo
  Wx8
|--------||
|--------||
|--------||
|--------||


   $
   $$
    |-3-| |3|          |3|  |3-|
||-------------------|-------------------------|
||o------------------|-------------------------|
||o-3---3-x-3-(3)----|-1-1-(1)-----------0h1---|
||-------------------|---------1-(1)-1h3-------|


  |-3-| |3|          |3|  |3-|
                                               3x
|------------------|----------------------------||
|------------------|---------------------------o||
|-3---3-x-3-(3)----|-1-1-(1)-----------0h1-----o||
|------------------|---------1-(1)-1h3----------||


  |-3-| |3|          |3|  |3-|
|------------------|-------------------------|
|------------------|-------------------------|
|-3---3-x-3-(3)----|-1-1-(1)-----------0h1---|
|------------------|---------1-(1)-1h3-------|


                                        D.S.
                                        D.S.
  |-3-| |3|
|-----------------7-8-8-|-7-5--------------------||
|-----------------------|-----8-8-5--------------||
|-3---3-x-3-(3)---------|-----------6-8-8-5------||
|-----------------------|-------------------6\---||


Outro/Guitar Solo
    |-3-| |3|          |3|  |3-|
||-------------------|-------------------------|
||o------------------|-------------------------|
||o-3---3-x-3-(3)----|-1-1-(1)-----------0h1---|
||-------------------|---------1-(1)-1h3-------|


  |-3-| |3|          |3|  |3-|
                                            6x
|------------------|-------------------------||
|------------------|------------------------o||
|-3---3-x-3-(3)----|-1-1-(1)-----------0h1--o||
|------------------|---------1-(1)-1h3-------||
Добавлено: 24.09.2015
Вам также может быть интересно:
Другие материалы по этой песне:
  • Аккорды и текст

Страница создана 14.08.2013
http://primanota.ru/journey/in-the-morning-day-chords.htm
Привет, Гость.
Предлагаем пройти революционный курс по гитаре.
Подарок от PrimaNota.Ru, забирай!