PrimaNota.ru - самый крупный в мире бесплатный архив песенных текстов, аккордов, табулатур и нот


Journey South - Whos Crying Now - текст песни, таба, видео

Регистрация Запомнить меня
Войти через:  Facebook Google Twitter Vk Yandex Mail.ru

Journey South - Whos Crying Now - текст песни, таба, видео

Печатать
Просмотров: 158
Who's Crying Now- Journey- guitar solo

b = bend   t = trill   p = pull off    h = hammer on  \ = slide down
/ = slide up  r = return to original note.  hp = hammer then pull off

e-b12-15--15---15---|----b12-15--15--15---|---b12-15--15--15--------|
B-------15--13---12-|-15-------15--13--12-|-15------15--13--12--12t-|
G-------------------|---------------------|-------------------14----|
D-------------------|---------------------|-------------------------|
A-------------------|---------------------|-------------------------|
E-------------------|---------------------|-------------------------|

e-b12-15--15--15-17t-|-b12-15--15—-15-17t-|-b12-15--15--15--------|
B-------15--13-------|-------15--13-------|-------15--13--12--12t-|
G--------------------|--------------------|-----------------14----|
D--------------------|--------------------|-----------------------|
A--------------------|--------------------|-----------------------|
E--------------------|--------------------|-----------------------|

e----------------|-----------|---------------|--------|
B----------------|-----------|---------------|--------|
G------12-14-14\-|-12-h10----|-------9-------|--------|
D-12/14----------|-------12t-|-10-12---10----|-10-12\-|
A----------------|-----------|-----------12t-|--------|
E----------------|-----------|---------------|--------|

e------------|-------------|---------12---|--------------|-17-17-|-b17-15-17-17-|
B------------|-12-h13-12---|-12-13-15--15-|13---15/17-17-|-------|--------------|
G------12-14-|----------14-|--------------|--14----------|-------|--------------|
D-11/14------|-------------|--------------|--------------|-------|--------------|
A------------|-------------|--------------|--------------|-------|--------------|
E------------|-------------|--------------|--------------|-------|--------------|

e|-15-17-b17(r17)-15-|-17-b17(r17)-15---|-15-17-17—15-17-b17-17-15-17-15------|
B|-------------------|---------------17-|-------------------------------17-17-|
G|-------------------|------------------|-------------------------------------|
D|-------------------|------------------|-------------------------------------|
A|-------------------|------------------|-------------------------------------|
E|-------------------|------------------|-------------------------------------|

e----------------|------------|------------|----------------------------|
B-15-17-b17—-15t-|-15-15-hp17-|------------|-------14-------------------|
G----------17----|------------|-17\16-14---|-14-16---14-—14-16-14-------|
D----------------|------------|---------16-|-----------16--------14-14\-|
A----------------|------------|------------|----------------------------|
E----------------|------------|------------|----------------------------|

e-b12-15--15--15---|---b12-15--15—-17-15-|---b12-15--15--15---------|
B-------15--13--12-|-15------15-—13------|-15------15--13--12---12t-|
G------------------|---------------------|--------------------14----|
D------------------|---------------------|--------------------------|
A------------------|---------------------|--------------------------|
E------------------|---------------------|--------------------------|
Добавлено: 27.07.2012
Вам также может быть интересно:
Другие материалы по этой песне:
  • Аккорды и текст

Страница создана 16.06.2012
http://primanota.ru/journey-south/whos-crying-now-chords.htm
Привет, Гость.
Предлагаем пройти революционный курс по гитаре.
Подарок от PrimaNota.Ru, забирай!