PrimaNota.ru - самый крупный в мире бесплатный архив песенных текстов, аккордов, табулатур и нот


Joss Stone - Somehow - аккорды и текст, видео

Регистрация Запомнить меня
Войти через:  Facebook Google Twitter Vk Yandex Mail.ru

Joss Stone - Somehow - аккорды и текст, видео

Печатать
Просмотров: 166
Somehow
Joss Stone
Riff:
e|--8--8--8--8----8----8----8----8--8--8-------------------------------------|
B|--8--8--8--8----8----8----8----8--8--8-------------------------------------|
G|--10-10-10-10---10---10---10---10-10-10------------------------------------|
D|--10-10-10-10---10---10---10---10-10-10------------------------------------|
A|---------------------------------------------------------------------------|
E|---------------------------------------------------------------------------|

e|--8--8--8--8----8----8----8----8--8--8-------------------------------------|
B|--8--8--8--8----8----8----8----8--8--8-------------------------------------|
G|--10-10-10-10---10---10---10---9--9--9-------------------------------------|
D|--10-10-10-10---10---10---10---10-10-10------------------------------------|
A|---------------------------------------------------------------------------|
E|---------------------------------------------------------------------------|

Intro:


Riff x2


Verse:
C                                 Dm
   The fire in his belly's taking over
F                                        C
   He never watched the telly dressed or sober
C                                      Dm
   He really likes the tiff give him a lift
And he won't round now
F                                      C
   He gets me to the point it's nearly over
But somehow


Chorus:
G
Somehow I'd like to get to know him
F
Somebody told me that I shouldn't claim him
G                                      F
Somebody told me that I should let him go
G (hit once)
   Baby somehow, yeah


Riff x2


Verse:
                 C
I really hate to say this
                          Dm
I can't wait till he gets older
             F
Then I can assure you we'll be fine
I won't bow out
                C
I know nobody's perfect
                       Dm
When in love you gotta earn it
          F                                     C
But until then I guess we'll have to scream and shout


Chorus:
G
Somehow I'd like to get to know him
F
Somebody told me that I shouldn't claim him
G                                      F
Somebody told me that I should let him go
G (hit once)
   Baby somehow, yeah


e|--8--8--8--8----8----8----8----8--8--8-------------------------------------|
B|--8--8--8--8----8----8----8----8--8--8-------------------------------------|
G|--10-10-10-10---10---10---10---10-10-10------------------------------------|
D|--10-10-10-10---10---10---10---10-10-10------------------------------------|
A|---------------------------------------------------------------------------|
E|---------------------------------------------------------------------------|


Interlude:
F              C                 F               C (hit once)
F              C                 (no chord)


Chorus:
G
Somehow I'd like to get to know him
F
Somebody told me that I shouldn't claim him
G                                      F
Somebody told me that I should let him go
But they really don't know
      G
Cause sometimes I really wanna kill 'em
F
   I'd die if I wasn't with him
G                                      F      G (hit once)
Somebody told me that I should let him go                   oh


Riff x2


Verse
                      C
Look here now you Casanova
                          Dm
Well we got people coming over
                F
I couldn't care less about the mess
     C
Just pipe it down
                  C
By now you should know it
                          Dm
That I'm a girl who don't give a shit
              F
There comes a point even for me
  C
I got my pride


Chorus:
G
Somehow I'd like to get to know him
F
Somebody told me that I shouldn't claim him
G                                      F      G (hit once)
Somebody told me that I should let him go


Riff x2
Добавлено: 07.07.2015
Другие материалы по этой песне:
  • Аккорды и текст

Страница создана 07.07.2015
http://primanota.ru/joss-stone/somehow-chords.htm
Привет, Гость.
Предлагаем пройти революционный курс по гитаре.
Подарок от PrimaNota.Ru, забирай!