PrimaNota.ru - самый крупный в мире бесплатный архив песенных текстов, аккордов, табулатур и нот


Josip Bocek - Dinamit - таба, видео

Регистрация Запомнить меня
Войти через:  Facebook Google Twitter Vk Yandex Mail.ru

Josip Bocek - Dinamit - таба, видео

Печатать
Просмотров: 66
Dinamit
Josip Bocek
http://www.youtube.com/watch?v=JaZgbZR3eao

tabbed by Almir Nametak
mokra@starmo.co.uk
May 2013

Em7#9: 075780

Main Rhythm
Chords: Am

E--------------------------------------------------------------------------------------------------|
B--------------------------------------------------------------------------------------------------|
G--------------------------------------------------------------------------------------------------|
D-------5-7--------5--7-7---7-7------5-------------------------------------------------------------|
A-------------5-6-7---------------5-7-----X2-------------------------------------------------------|
E-----5-----8------------5-5---5-5-----------------------------------------------------------------|



Intro Theme
Chords: Am

E--------------------------------------------------------------------------------------------------|
B--------------------------------8/10-----(5)---------------------8/10-----------------------------|
G-----5---7-5-7-4---5-4-5-4-5-4--------5----7-5-4---5-4-5-4-5 4------------------------------------|
D------------------------------7--------------------------------7----------------------------------|
A--------------------------------------------------------------------------------------------------|
E--------------------------------------------------------------------------------------------------|


Main Theme
Chords: Am                                                    Em7#9

E--------------------------------------------------------------------------------------------------|
B---------------------------------------------------------------8----------------------------------|
G-----5-------5-7-7/9-5-7-5-----5---5-------5-7-7/9-5-7-575-----7----------------------------------|
D------7-6-5-7-------------7-5-7-----7-6-5-7---------------7-5--5----------------------------------|
A--------------------------------------------------------------7-----------------------------------|
E--------------------------------------------------------------------------------------------------|



Chords:      Dm       C   Bb7 (B,A,G#)  G                  C       Em7#9

E---------------------------------------------7---7---7--------------------------------------------|
B-----5-8-8/10-8-8-6--8/10-8-6-------------6/8-6/8-6/8-6/8/6-5---8---------------------------------|
G-----------------------------7----------4-----------------------7---------------------------------|
D------------------------------7-6--5-5-5------------------------5---------------------------------|
A----------------------------------------------------------------7---------------------------------|
E---------------------------------------------------------------0----------------------------------|


Chords:  Am       G       F#m         G        Am     G
E--------------------------------------------------------------------------------------------------|
B------13-10---10-10--10-12-12/13/12-10--10-12/13-10-----------------------------------------------|
G------------11-----11-----------------11----------------------------------------------------------|
D--------------------------------------------------------------------------------------------------|
A--------------------------------------------------------------------------------------------------|
E--------------------------------------------------------------------------------------------------|


Chords:   F#m       G       Am       G           F#               G                     Em7#9
E------------------------------------------------------------------------------7-8-10-12-15121512--|
B----10-10--10-12-12/13/12-10--10---------------------------7---8-7-10-8-7-8-10--------------------|
G--11-----11-----------------12--12/13-12-10------7----9-7---9-7---9-------------------------------|
D-------------------------------------------7-9-10-10-9---10---------------------------------------|
A--------------------------------------------------------------------------------------------------|
E--------------------------------------------------------------------------------------------------|


Solo over: Am Bm C Bm



Suggestions are welcome.
Добавлено: 28.06.2013
Другие материалы по этой песне:
  • Аккорды и текст

Страница создана 28.06.2013
http://primanota.ru/josip-bocek/dinamit-chords.htm
Привет, Гость.
Предлагаем пройти революционный курс по гитаре.
Подарок от PrimaNota.Ru, забирай!