PrimaNota.ru - самый крупный в мире бесплатный архив песенных текстов, аккордов, табулатур и нот


Josie And The Pussycats - 3 Smalls Words - таба, видео

Регистрация Запомнить меня
Войти через:  Facebook Google Twitter Vk Yandex Mail.ru

Josie And The Pussycats - 3 Smalls Words - таба, видео

Печатать
Просмотров: 90



-------------------------------------------------------------------------------
                    3 Small Words - Josie and the Pussycats
-------------------------------------------------------------------------------
Tabbed by:Ian de Chantal
Email:dechantal@tmail.com

Tuning: Standard

This is my first tab ever... i like this song and i tabbed it because my band   is going to cover this song.



intro 
e|--------------------|
B|--------------------|
G|-99--1414--13-----9-|
D|-99--1414--13--9--9-|
A|-77--1212--11--9--7-|
E|---------------7----|

verse (palm muted)
e|----------------------------------------------------------------------|
B|----------------------------------------------------------------------|
G|-9999999999999999-----------------------------------------------------|
D|-9999999999999999--9999999999999999--7777777777777777--44444444444444-|
A|-7777777777777777--9999999999999999--7777777777777777--44444444444444-|
E|-------------------7777777777777777--5555555555555555--22222222222222-|
  
chorus
e|-------------------------------------|             
B|-------------------------------------|
G|-9999---------------------------9999-|
D|-9999---999999--111111--999999--9999-|
A|-7777---999999--111111--999999--7777-|
E|--------777777---9-9-9--777777-------|                                                     
  
and then:
e|-------------------------------|
B|-------------------------------|
G|-------------------------------|
D|-999999----7----7----7----7----|
A|-999999----7----7----7----7----|
E|-777777-55-5-55-5-55-5-55-5----|
 
solo
e|----------------------------------------------------------|
B|----------------------------------------------------------|
G|----------------------------------------------------------|
D|-9-bend-up---7-let-ring--------------------6--7--9--------|
A|----------------------------------6--7--9-----------7~----|
E|---------------------------7--9---------------------------|

then after the solo theres this thing...
   
1 guitar plays this twice          then 2nd time another guitar plays this:
e|-----------------------------|   |-------------------|
B|-----------------------------|   |-------------------|
G|-9---------------------------|   |---9---9---9---9---|
D|-9--let-it-ring--9-----7-----|   |-------------------|
A|-7---------------9-----7-----|   |-7---7---7---7-----|
E|-----------------7-----5-----|   |-------------------|

intro 2x
verse 2x
chorus 2x
intro 2x
verse 2x
chorus 2x
solo 1x
chorus 2x

then end on:
e|------------------------| 
B|------------------------|
G|------------------------|
D|--7--------------7------|
A|--7-let it ring--7------| 
E|--5------------- 5------| 

| /  slide up
| \  slide down
| h  hammer-on
| p  pull-off
| ~  vibrato
| +  harmonic
| x  Mute note
===============================================================================
Добавлено: 24.02.2012
Другие материалы по этой песне:
  • Аккорды и текст

Страница создана 24.02.2012
http://primanota.ru/josie-and-the-pussycats/3-smalls-words-chords.htm
Привет, Гость.
Предлагаем пройти революционный курс по гитаре.
Подарок от PrimaNota.Ru, забирай!