PrimaNota.ru - самый крупный в мире бесплатный архив песенных текстов, аккордов, табулатур и нот


Joshua Soriano - River Flow In You - таба, видео

Регистрация Запомнить меня
Войти через:  Facebook Google Twitter Vk Yandex Mail.ru

Joshua Soriano - River Flow In You - таба, видео

Печатать
Просмотров: 99
Title: River Flows In You

Artist: Sungha Jung

Composed by: Yiruma

Tabbed by: Ryan R. Gonzales

Location: Rosario, Batangas - Philippines

Band: http://www.youtube.com/watch?v=dY0_cK4tskI

Tuning: Standard - e B G D A E (Capo on 2nd fret)



00:18

                                                            ^
e ||--3--2--3--2-|-3-----3-----|------3--2--3--2-|-3-----3------|
B ||--------3----|----3-----1~-|---0--------3----|----3-----1~--|
G ||-----0-----0-|----0-----0~-|-0-------0-----0-|----0-----0~--|
D ||--2----------|-------------|------2----------|--------------|
A ||-------------|-3-----------|-----------------|-3------------|
E ||-------------|-------------|-----------------|--------------|

                                                            ^     ^
e ||-------3--2--3-------2--3-|-------3---------|---------------------|
B ||----0--------3----3-----3-|-----3-------0---|--------1--3--0------|
G ||--0-------0----------0----|---0-------0-----|-3-s-4-----0-----2~--|
D ||-------2--------2---------|---------------0-|-----------0-----0~--|
A ||--------------------------|-3-------3-------|---------------------|
E ||--------------------------|-----------------|-3-------------------|

                                           ^                      ^
e ||----------------------------|----------------|--------------------|
B ||----------------------------|-0--------0-h-1-|-3--------1--0------|
G ||-------0-----0--------0-h-2-|-------0--0-----|-------0--------2~--|
D ||--(0)-----4--------2--------|----2-----2-----|----0-----------0~--|
A ||----------------2-----------|-3--------------|--------------------|
E ||-------------0--------------|----------------|-3------------------|

                                                               ^     ^
e ||----------3--2--3-------2--3-|-------3---------|--------------7--5~--|
B ||----------------3----3-----3-|-----3-------0---|--------1--3---------|
G ||-------------0----------0----|---0-------0-----|-3-s-4-----0---------|
D ||--(0)--4--2--------2---------|---------------0-|-----------0-----0~--|
A ||-----------------------------|-3-------3-------|---------------------|
E ||-----------------------------|-----------------|-3-------------------|

                                                     ^                      ^
e ||----5-h-7-p-5--3-s-2-|-3--------------|----------------|-------------------------|
B ||----3----------------|----------------|-0--------0-h-1-|-3--------1--0-----------|
G ||---------------------|-------0--0-h-2-|-0-----0--0-----|-------0--------2-----2--|
D ||--0------------------|----2-----------|----2-----2-----|----0-----------0--0-----|
A ||---------------------|----------------|-3--------------|-------------------------|
E ||---------------------|-0--------------|----------------|-3-----------------------|


01:02


e ||--3-s-5--3-p-2-|-3-----------3--5--3-p-2-|-3-----------|
B ||---------------|-------3-----3-----------|-------3-----|
G ||---------------|-------0-----------------|----0--------|
D ||---------------|----2--------------------|-------------|
A ||---------------|-------------------------|-3--------3--|
E ||---------------|-0--------0--------------|-------------|


e ||--3--5--3-p-2-|-3-s-5--7-s-8--10--7--------|----------|
B ||--3-----------|----------------------10--8-|-7~-------|
G ||--------------|----------------------------|----7-----|
D ||--------------|----------------------------|-0-----0--|
A ||--------------|----------------------------|----------|
E ||--------------|-3--------------------------|----------|


e ||--3--3-s-5-p-3-p-2-|-3-----------3--5--3-p-2-|-3-----------|
B ||-------------------|-------3-----3-----------|-------3-----|
G ||-------------------|-------0-----------------|----0--------|
D ||-------------------|----2--------------------|-------------|
A ||-------------------|-------------------------|-3--------3--|
E ||-------------------|-0--------0--------------|-------------|


e ||--3--5--3-p-2-|-3-s-5--7-s-8--10--7--------|----------|
B ||--3-----------|----------------------10--8-|-7~-------|
G ||--------------|----------------------------|----7-----|
D ||--------------|----------------------------|-0-----0--|
A ||--------------|----------------------------|----------|
E ||--------------|-3--------------------------|----------|


e ||--3--3-s-5-p-3-p-2-|-3-----------3--3-s-5-p-3-p-2-|-3-----------|
B ||-------------------|-------3-----3----------------|-------3-----|
G ||-------------------|-------0----------------------|----0--------|
D ||-------------------|----2-------------------------|-------------|
A ||-------------------|------------------------------|-3--------3--|
E ||-------------------|-0--------0-------------------|-------------|


e ||--3--3-s-5-p-3-p-2-|-3-s-5--7-s-8--10--7--------|----------|
B ||--3----------------|----------------------10--8-|-7~-------|
G ||-------------------|----------------------------|----7-----|
D ||-------------------|----------------------------|-0-----0--|
A ||-------------------|----------------------------|----------|
E ||-------------------|-3--------------------------|----------|


e ||--3--3-s-5-p-3-p-2-|-3-----------3--3-s-5-p-3-p-2-|-3-----------|
B ||-------------------|-------3-----3----------------|-------3-----|
G ||-------------------|-------0----------------------|----0--------|
D ||-------------------|----2-------------------------|-------------|
A ||-------------------|------------------------------|-3--------3--|
E ||-------------------|-0--------0-------------------|-------------|


e ||--3--3-s-5-p-3-p-2-|-3-s-5--7-s-8--10--7--------|----------------|
B ||--3----------------|----------------------10--8-|-7~-------------|
G ||-------------------|----------------------------|----7-----------|
D ||-------------------|----------------------------|-0-----7~-s-4~~-|
A ||-------------------|----------------------------|----------------|
E ||-------------------|-3--------------------------|----------------|


01:33

                                                                  ^
e ||-------3--2--3-------2--3-|-------3---------|---------------------|
B ||----0--------3----3-----3-|-----3-------0---|--------1--3--0------|
G ||--0-------0----------0----|---0-------0-----|-3-s-4-----0-----2~--|
D ||-------2--------2---------|---------------0-|-----------0-----0~--|
A ||--------------------------|-3-------3-------|---------------------|
E ||--------------------------|-----------------|-3-------------------|

                                                      ^
e ||-----------------------------|---------------------------|
B ||-----------------------------|-0------------0-----0-h-1--|
G ||-----0-----0-----------0-h-2-|-------0-h-2--------0------|
D ||--0-----4--------2-----------|----2---------------2------|
A ||--------------2--------------|-3---------------3---------|
E ||-----------0--------0--------|---------------------------|

            ^                  ^
e ||----------------------------------------------|
B ||--3-----0-h-1--3-----1--0--------1--0---------|
G ||--------0------------------2-----------2------|
D ||-----0---------------------0--0-----------4~--|
A ||----------------------------------------------|
E ||--3---------------3---------------------------|

                                                       ^     ^
e ||--3--2--3-------2--3-|-------3---------|--------------7--5~--|
B ||--------3----3-----3-|-----3-------0---|--------1--3---------|
G ||-----0----------0----|---0-------0-----|-3-s-4-----0---------|
D ||--2--------2---------|---------------0-|-----------0-----0~--|
A ||---------------------|-3-------3-------|---------------------|
E ||---------------------|-----------------|-3-------------------|

                                                               ^
e ||----5-h-7-p-5--3-s-2-|-3--------------|---------------------------|
B ||----3----------------|----------------|-0------------0-----0-h-1--|
G ||---------------------|-------0--0-h-2-|-------0-h-2--------0------|
D ||--0------------------|----2-----------|----2---------------2------|
A ||---------------------|----------------|-3---------------3---------|
E ||---------------------|-0--------------|---------------------------|

            ^                  ^
e ||---------------------------------------|
B ||--3-----0-h-1--3-----1--0--------------|
G ||--------0------------------2--------2--|
D ||-----0---------------------0--0--0-----|
A ||---------------------------------------|
E ||--3---------------3--------------------|


02:03


e ||--3-s-5--3-p-2-|-3-----------3--5--3-p-2-|-3-----------|
B ||---------------|-------3-----3-----------|-------3-----|
G ||---------------|-------0-----------------|----0--------|
D ||---------------|----2--------------------|-------------|
A ||---------------|-------------------------|-3--------3--|
E ||---------------|-0--------0--------------|-------------|


e ||--3--5--3-p-2-|-3-s-5--7-s-8--10--7--------|----------|
B ||--3-----------|----------------------10--8-|-7~-------|
G ||--------------|----------------------------|----7-----|
D ||--------------|----------------------------|-0-----0--|
A ||--------------|----------------------------|----------|
E ||--------------|-3--------------------------|----------|


e ||--3--3-s-5-p-3-p-2-|-3-----------3--3-s-5-p-3-p-2-|-3-----------|
B ||-------------------|-------3-----3----------------|-------3-----|
G ||-------------------|-------0----------------------|----0--------|
D ||-------------------|----2-------------------------|-------------|
A ||-------------------|------------------------------|-3--------3--|
E ||-------------------|-0--------0-------------------|-------------|


e ||--3--3-s-5-p-3-p-2-|-3-s-5--7-s-8--10--7--------|----------|
B ||--3----------------|----------------------10--8-|-7~-------|
G ||-------------------|----------------------------|----7-----|
D ||-------------------|----------------------------|-0-----0--|
A ||-------------------|----------------------------|----------|
E ||-------------------|-3--------------------------|----------|


e ||--3-s-5-p-3-p-2-|-3-----------3--3-s-5-p-3-p-2-|-3-----------|
B ||----------------|-------3-----3----------------|-------3-----|
G ||----------------|-------0----------------------|----0--------|
D ||----------------|----2-------------------------|-------------|
A ||----------------|------------------------------|-3--------3--|
E ||----------------|-0--------0-------------------|-------------|


e ||--3--3-s-5-p-3-p-2-|-3-s-5--7-s-8--10--7--------|----------|
B ||--3----------------|----------------------10--8-|-7~-------|
G ||-------------------|----------------------------|----7-----|
D ||-------------------|----------------------------|-0-----0--|
A ||-------------------|----------------------------|----------|
E ||-------------------|-3--------------------------|----------|


e ||--3--3-s-5-p-3-p-2-|-3-----------3--3-s-5-p-3-p-2-|-3-----------|
B ||-------------------|-------3-----3----------------|-------3-----|
G ||-------------------|-------0----------------------|----0--------|
D ||-------------------|----2-------------------------|-------------|
A ||-------------------|------------------------------|-3--------3--|
E ||-------------------|-0--------0-------------------|-------------|


e ||--3--3-s-5-p-3-p-2-|-3-s-5--7-s-8--10--7--------|----------------|
B ||--3----------------|----------------------10--8-|-7~-------------|
G ||-------------------|----------------------------|----7-----------|
D ||-------------------|----------------------------|-0-----7~-s-4~~-|
A ||-------------------|----------------------------|----------------|
E ||-------------------|-3--------------------------|----------------|


02:33

      ^
e ||--------3--2--2--------0----|----0-----------------|
B ||-----0--------------0-----3-|-3-----1--------------|
G ||--0--------------0----------|-0-----0--0--------0--|
D ||--4-------------------------|----------------2-----|
A ||----------------------------|-3-----------3--------|
E ||--0-----------0-------------|----------------------|

                                                     ^
e ||-----0----------------|------------------|-------------|
B ||--3-----1-------------|-1--0--0--0-------|-------0-----|
G ||--0-----0-----0-----0-|-2-----------2--2-|-2-----0-----|
D ||-----------2-----2----|-0----------------|----0--0--0--|
A ||--2-----0-------------|------------------|-------------|
E ||----------------------|------------------|-3-----------|


e ||----------------|----------3------2-|-2--------0-----|
B ||----------------|----0--0----(0)----|-------0-----3--|
G ||-----------0----|-0-----------------|----0-----------|
D ||--------0-----4-|-2--------2--------|-0--------------|
A ||-----2----------|-------------------|----------------|
E ||--3-------------|-------------------|----------------|


e ||-----0--0-------------|------------------|----------------|
B ||--3-------------------|-3--1--0--0--1----|----------------|
G ||--0--------0--------0-|-0--0-------------|----------------|
D ||--------2--------2----|----------------2-|----2--5--4-----|
A ||--3'----------3-------|-2--------0-------|-3-----5-----5--|
E ||----------------------|------------------|----------------|


02:59


e ||--3-s-5--3-p-2-|-3-----------3--5--3-p-2-|-3-----------|
B ||---------------|-------3-----3-----------|-------3-----|
G ||---------------|-------0-----------------|----0--------|
D ||---------------|----2--------------------|-------------|
A ||---------------|-------------------------|-3--------3--|
E ||---------------|-0--------0--------------|-------------|


e ||--3--5--3-p-2-|-3-s-5--7-s-8--10--7--------|----------|
B ||--3-----------|----------------------10--8-|-7~-------|
G ||--------------|----------------------------|----7-----|
D ||--------------|----------------------------|-0-----0--|
A ||--------------|----------------------------|----------|
E ||--------------|-3--------------------------|----------|


e ||--3--3-s-5-p-3-p-2-|-3-----------3--3-s-5-p-3-p-2-|-3-----------|
B ||-------------------|-------3-----3----------------|-------3-----|
G ||-------------------|-------0----------------------|----0--------|
D ||-------------------|----2-------------------------|-------------|
A ||-------------------|------------------------------|-3--------3--|
E ||-------------------|-0--------0-------------------|-------------|


e ||--3--3-s-5-p-3-p-2-|-3-s-5--7-s-8--10--7--------|----------|
B ||--3----------------|----------------------10--8-|-7~-------|
G ||-------------------|----------------------------|----7-----|
D ||-------------------|----------------------------|-0-----0--|
A ||-------------------|----------------------------|----------|
E ||-------------------|-3--------------------------|----------|


e ||--3-s-5-p-3-p-2-|-3-----------3--3-s-5-p-3-p-2-|-3-----------|
B ||----------------|-------3-----3----------------|-------3-----|
G ||----------------|-------0----------------------|----0--------|
D ||----------------|----2-------------------------|-------------|
A ||----------------|------------------------------|-3--------3--|
E ||----------------|-0--------0-------------------|-------------|


e ||--3--3-s-5-p-3-p-2-|-3-s-5--7-s-8--10--7--------|----------|
B ||--3----------------|----------------------10--8-|-7~-------|
G ||-------------------|----------------------------|----7-----|
D ||-------------------|----------------------------|-0-----0--|
A ||-------------------|----------------------------|----------|
E ||-------------------|-3--------------------------|----------|


e ||--3--3-s-5-p-3-p-2-|-3-----------3--3-s-5-p-3-p-2-|-3-----------|
B ||-------------------|-------3-----3----------------|-------3-----|
G ||-------------------|-------0----------------------|----0--------|
D ||-------------------|----2-------------------------|-------------|
A ||-------------------|------------------------------|-3--------3--|
E ||-------------------|-0--------0-------------------|-------------|


e ||--3--3-s-5-p-3-p-2-|-3-s-5--7-s-8--10--7--------|----------------|
B ||--3----------------|----------------------10--8-|-7~-------------|
G ||-------------------|----------------------------|----7-----------|
D ||-------------------|----------------------------|-0-----7~-s-4~~-|
A ||-------------------|----------------------------|----------------|
E ||-------------------|-3--------------------------|----------------|


03:29 - 03:35

      ^     ^     ^    ^
e ||-------------------3~~~--|
B ||--------------0~--(0)~~--|
G ||--0-----0--0--0~--(0)~~--|
D ||--4-----4--4--4~---------|
A ||-----0-----0-------------|
E ||--0-----0----------------|
Добавлено: 30.08.2013
Другие материалы по этой песне:
  • Аккорды и текст

Страница создана 30.08.2013
http://primanota.ru/joshua-soriano/river-flow-in-you-chords.htm
Привет, Гость.
Предлагаем пройти революционный курс по гитаре.
Подарок от PrimaNota.Ru, забирай!