PrimaNota.ru - самый крупный в мире бесплатный архив песенных текстов, аккордов, табулатур и нот


Joshua Soriano - Rith Here Waiting For You - таба, видео

Регистрация Запомнить меня
Войти через:  Facebook Google Twitter Vk Yandex Mail.ru

Joshua Soriano - Rith Here Waiting For You - таба, видео

Печатать
Просмотров: 75
Intro:

      ^        ^        ^        ^        ^          ^
e ||--------|--3~----|--------|--3~----|--8---7~--|--5~------|
B ||--------|--3~----|--------|--3~----|--5~------|--5---8~--|
G ||--2~----|--0~----|--2~----|--0~----|--5~------|--5~------|
D ||--2~----|--2~----|--2~----|--------|----------|----------|
A ||--------|--3~----|--3~----|--2~----|--8~------|--5~------|
E ||--1~----|--------|--1~----|--------|----------|----------|


--------------3--3--1-p-0----|----------------0--1--0--|
---------------------------3-|----------3--3-----------|
-----------0-----------------|-------0-----------------|
--------2--------------------|----0--------------------|
--0--3-----------------------|-2-----------------------|
-----------------------------|-------------------------|


-----------------0-|-------------------------|
--------1--1--3----|----3-----1--p--0--------|
-----------0-------|-------0-----------2--0--|
-----2-------------|-------------------------|
--0----------------|-------------------------|
-------------------|-1-----------3-----------|


-----------3--3--1-p-0----|----------------0--1--0--|
------------------------3-|----------3--3-----------|
--------0-----------------|-------0-----------------|
-----2--------------------|----0--------------------|
--3-----------------------|-2-----------------------|
--------------------------|-------------------------|


--------------0--0-h-1-|----0---------------------|
--------1--3-----------|----------3-----1-p-0--1--|
-----------0-----------|-------0------------------|
-----2-----------------|--------------------------|
--0--------------------|--------------------------|
-----------------------|-1-----------3------------|


-------------------|-----------------|
-----------0--1----|----------0--1~--|
--------2----------|-------2---------|
-----2-------------|----2------------|
--0----------------|-0---------------|
-----------------0-|-----------------|


Verse:


-------------------------|----0--------0-----------|
-----------------1--3--3-|----------------3--1--3--|
--------0-----0----------|-------------------------|
-----2-------------------|-------0-----------------|
--3--------3-------------|-------------------------|
-------------------------|-1--------1--------------|

                          ^
------------------------|-----------------------------|
-----1----------------0-|-1-----3--0------------------|
--------2~---------2----|-2--------0--------0-h-2--0--|
--0------------0~-------|----0-----------0------------|
------------0-----------|-----------------------------|
------------------------|-3-----------3---------------|


-------------------------|----0--------0-----------|
-----------------1--3--3-|----------------3--1--3--|
--------0-----0----------|-------------------------|
-----2-------------------|-------0-----------------|
--3--------3-------------|-------------------------|
-------------------------|-1--------1--------------|

                          ^
------------------------|-------------------------|
-----1----------------0-|-1-----3--0--------1--1--|
--------2~---------2----|-2--------0-----------0--|
--0------------0~-------|----0-----------0--------|
------------0-----------|-------------------------|
------------------------|-3-----------3-----------|


Refrain:

                                              |--------|
---------------------0--1-|-------0-----------------------|
--------------1-h-3-------|----------1-----3--------------|
--------0-----0-----------|-------------------------------|
-----2--------------------|----0--------------------0-----|
--0--------0--------------|----------------------2-----2--|
--------------------------|-1-----------0-----3-----------|

                                              |---------|
---------------------0--1-|-------0------------------------|
--------1-----1-h-3-------|----------1-----1---------------|
--------0-----0-----------|-----------------------------0--|
-----2--------------------|----0---------------------0-----|
--0--------0--------------|-------------------0-h-2--------|
--------------------------|-3-----------1------------------|


Chorus:


-----------3--3--1--0----|----------------0--1--0--|
-----------1--1--1--1--3-|----------3--3-----------|
--------0----------------|-------0--0--0-----------|
-----2-------------------|----0--------------------|
--3----------------------|-------------------------|
-------------------------|-3-----------------------|


-----------------0-|-------------------------|
--------1--1--3----|----3-----1--p--0--------|
-----------0-------|-------0-----------2--0--|
-----2-------------|-------------------------|
--0----------------|-------------------------|
-------------------|-1-----------3-----------|


-----------3--3--1--0----|----------------0--1--0--|
-----------1--1--1--1--3-|----------3--3-----------|
--------0----------------|-------0--0--0-----------|
-----2-------------------|----0--------------------|
--3----------------------|-------------------------|
-------------------------|-3-----------------------|


--------------0--0-h-1-|----0---------------------|
--------1--3-----------|----------3-----1-p-0--1--|
-----------0-----------|-------0------------------|
-----2-----------------|--------------------------|
--0--------------------|--------------------------|
-----------------------|-1-----------3------------|


Interlude:


-------------------|-----------------|
-----------0--1----|----------0--1~--|
--------2----------|-------2---------|
-----2-------------|----2------------|
--0----------------|-0---------------|
-----------------0-|-----------------|


Verse:


-------------------------|----0--------0-----------|
-----------------1--3--3-|----------------3--1--3--|
--------0-----0----------|-------------------------|
-----2-------------------|-------0-----------------|
--3--------3-------------|-------------------------|
-------------------------|-1--------1--------------|

                          ^
------------------------|-----------------------------|
-----1----------------0-|-1-----3--0------------------|
--------2~---------2----|-2--------0--------0-h-2--0--|
--0------------0~-------|----0-----------0------------|
------------0-----------|-----------------------------|
------------------------|-3-----------3---------------|


-------------------------|----0--------1-p-0--------|
-----------------1--3--3-|--------------------1--3--|
--------0-----0----------|--------------------------|
-----2-------------------|-------0------------------|
--3--------3-------------|--------------------------|
-------------------------|-1--------1---------------|

                          ^
------------------------|-------------------------|
-----1----------------0-|-1-----3--0--------1--1--|
--------2~---------2----|-2--------0-----------0--|
--0------------0~-------|----0-----------0--------|
------------0-----------|-------------------------|
------------------------|-3-----------3-----------|


Refrain:

                                              |--------|
---------------------0--1-|-------0-----------------------|
--------------1-h-3-------|----------1-----3--------------|
--------0-----0-----------|-------------------------------|
-----2--------------------|----0--------------------0-----|
--0--------0--------------|----------------------2-----2--|
--------------------------|-1-----------0-----3-----------|

                                              |---------|
---------------------0--1-|-------0------------------------|
--------1-----1-h-3-------|----------1-----1---------------|
--------0-----0-----------|-----------------------------0--|
-----2--------------------|----0---------------------0-----|
--0--------0--------------|-------------------0-h-2--------|
--------------------------|-1-----------0------------------|


Chorus:


-----------3--3--1--0----|----------------0--1--0--|
-----------1--1--1--1--3-|----------3--3-----------|
--------0----------------|-------0--0--0-----------|
-----2-------------------|----0--------------------|
--3----------------------|-------------------------|
-------------------------|-3-----------------------|


-----------------0-|-------------------------|
--------1--1--3----|----3-----1--p--0--------|
-----------0-------|-------0-----------2--0--|
-----2-------------|-------------------------|
--0----------------|-------------------------|
-------------------|-1-----------3-----------|


-----------3--3--1--0----|----------------0--1--0--|
-----------1--1--1--1--3-|----------3--3-----------|
--------0----------------|-------0--0--0-----------|
-----2-------------------|----0--------------------|
--3----------------------|-------------------------|
-------------------------|-3-----------------------|


--------------0--0-h-1-|----0---------------------|
--------1--3-----------|----------3-----1-p-0--1--|
-----------0-----------|-------0------------------|
-----2-----------------|--------------------------|
--0--------------------|--------------------------|
-----------------------|-1-----------3------------|


Bridge:


----------------|-0-----1--0--------------|
-----------1--3-|-0--------0--------------|
--------0-------|-0-----------------0--2--|
--3--3----------|-2--------------2--------|
--0--0----------|-3--3--------3-----------|
--1--1-----3----|-------------------------|


------------------------------|-------------------------|--------------|
------------------1--1-h-3--1-|-------------------------|-------1------|
-----------2---------2------2-|-------------------------|----2---------|
--------3---------------------|-------3-----------2-----|-0------------|
-----3------------------------|----3-----3-----3-----3--|----------0~--|
--1-----------1---------------|-1-----------0-----------|--------------|


-----------|-0-----1--0--------------|-------------------3--3-|-------------------------|
-----1-h-3-|-0--------0--------------|-------1--1-----------1-|-------------1-----0-----|
--0--0-----|-0-----------------0--2--|----------2-----0-----2-|-------0-----0-----0-----|
-----------|-2--------------2--------|----0-------------------|----0-----------2-----0--|
-----------|-3--3--------3-----------|------------------------|-------------------------|
-----3-----|-------------------------|-1-----------1----------|-3--------3--------------|


Interlude:


-----------3--3--1--0----|----------------0--1--0--|
-----------1--1--1--1--3-|----------3--3-----------|
--------0----------------|-------0--0--0-----------|
-----2-------------------|----0--------------------|
--3----------------------|-------------------------|
-------------------------|-3-----------------------|


-----------------0-|-------------------------|
--------1--1--3----|----3-----1--p--0--------|
-----------0-------|-------0-----------2--0--|
-----2-------------|-------------------------|
--0----------------|-------------------------|
-------------------|-1-----------3-----------|


-----------3--3--1--0----|----------------0--1--0--|
-----------1--1--1--1--3-|----------3--3-----------|
--------0----------------|-------0--0--0-----------|
-----2-------------------|----0--------------------|
--3----------------------|-------------------------|
-------------------------|-3-----------------------|


--------------0--0-h-1-|----0---------------------|
--------1--3-----------|----------3-----1-p-0--1--|
-----------0-----------|-------0------------------|
-----2-----------------|--------------------------|
--0--------------------|--------------------------|
-----------------------|-1-----------3------------|


Refrain:

                                              |--------|
---------------------0--1-|-------0-----------------------|
--------------1-h-3-------|----------1-----3--------------|
--------0-----0-----------|-------------------------------|
-----2--------------------|----0--------------------0-----|
--0--------0--------------|----------------------2-----2--|
--------------------------|-1-----------0-----3-----------|

                                              |---------|
---------------------0--1-|-------0------------------------|
--------1-----1-h-3-------|----------1-----1---------------|
--------0-----0-----------|-----------------------------0--|
-----2--------------------|----0---------------------0-----|
--0--------0--------------|-------------------0-h-2--------|
--------------------------|-3-----------1------------------|


Chorus:


-----------3--3--1--0----|----------------0--1--0--|
-----------1--1--1--1--3-|----------3--3-----------|
--------0----------------|-------0--0--0-----------|
-----2-------------------|----0--------------------|
--3----------------------|-------------------------|
-------------------------|-3-----------------------|


-----------------0-|-------------------------|
--------1--1--3----|----3-----1--p--0--------|
-----------0-------|-------0-----------2--0--|
-----2-------------|-------------------------|
--0----------------|-------------------------|
-------------------|-1-----------3-----------|


-----------3--3--1--0----|----------------0--1--0--|
-----------1--1--1--1--3-|----------3--3-----------|
--------0----------------|-------0--0--0-----------|
-----2-------------------|----0--------------------|
--3----------------------|-------------------------|
-------------------------|-3-----------------------|


--------------0--0-h-1-|----0---------------------|
--------1--3-----------|----------3-----1-p-0--1--|
-----------0-----------|-------0------------------|
-----2-----------------|--------------------------|
--0--------------------|--------------------------|
-----------------------|-1-----------3------------|


--------------0~--|
-----------1------|
--------0---------|
-----2------------|
--3---------------|
------------------|

Добавлено: 10.10.2013
Другие материалы по этой песне:
  • Аккорды и текст

Страница создана 10.10.2013
http://primanota.ru/joshua-soriano/rith-here-waiting-for-you-chords.htm
Привет, Гость.
Предлагаем пройти революционный курс по гитаре.
Подарок от PrimaNota.Ru, забирай!