PrimaNota.ru - самый крупный в мире бесплатный архив песенных текстов, аккордов, табулатур и нот


Josh Wilson - It Is Well Instrumental - таба, видео

Регистрация Запомнить меня
Войти через:  Facebook Google Twitter Vk Yandex Mail.ru

Josh Wilson - It Is Well Instrumental - таба, видео

Печатать
Просмотров: 90
Josh Wilson
It Is Well (Instrumental)

Tuning: DAGDAD

*I LEFT OUT THE PART WHERE JOSH SINGS, but it fits very well*

D|---------0---------------------------0---------------0---------------|
A|-------------------------------------------------------4~~~~~~~~~~~~-|
G|---0-----------------0-2-------0---------0-------0h2-----------------|
D|-----------------0h2-----0h1/4---------------0h2---------------------|
A|-9---7-------5---0---------------7-----------------------------------|
D|-5-----5---5---5-------------------5---5---5-------------------------|

D|-------------0---------------------------------------------------0---|
A|---------0-------------------------------------0-------------0-------|
G|-0h2-------------0--------0----------------4---2---0-------0---------|
D|-----0------------4-2/4-------2---4----5---------0---0-1/4-----4-----|
A|-----------------------------------------5---5-4---2-----------------|
D|-------0---0---0--------0---0---0---0--0---------------0-----0-----0-|


D|------0----------------0-------------------0-------0-------0---------|
A|-----------------------------------------0-------0-------0---4---4---|
G|-2/7-------6---4---4-------2---1------2------------------------------|
D|-----0---0---0---0---0---0---0---0---0-------2/4-------2-------2-----|
A|-------------------0-----------2----0----------------0---------------|
D|---9---------------2-------2-----------------------------------------|

D|-------0----------------0-----------------0--------------------------|
A|---------------------------------------------------------------------|
G|-2/7-------7---6----4-------4---4-----9-------9---7----4/6\4-2-------|
D|---------0---0---0----0---0---0---------9---9---9---9----------4\2~~-|
A|-------------------------------------------------------0-------------|
D|-----0-------------5----------------6--------------------------------|

D|-----------0--------0--------0-----0-------0-----------------0-------|
A|-----------------------------------0---------------------0-----------|
G|-2--/7-7--------7--------7-------6-0-0-----------------0---------0---|
D|---0-----0---0----0---0----0---0---0-----------0---0/2-----2---2---0-|
A|-----------------------------------9---7-----------------------------|
D|-------4-------5--------7----------5-----5---5---5-------------------|

D|-0-------0-------------------0h4h2~~-5h7-7-------5---4---2/4---------|
A|-0---------------------------------------0---------------------0-----|
G|-0-0-------------------0h2h4-------------7---7-----7---7-------------|
D|-0-----------0---0h2h4-------------------0-0---0-------------0---0---|
A|-9---7-----------------------------------0---------------------------|
D|-5-----5---5---5-------------------------0---------------------------|

D|-2---4-5-7-9---7---5---4h7b4b0-0---0-7---12----11---9---9---|
A|---0---0---------------0-------4/5-5-0---0------------------|
G|-------0-----0---------0-------------6---11-11-10---9-------|
D|-------0---------0---0--------------------------------------|
A|-------0----------------------------------------------------|
D|-------5-------7-------0-------------4---9-----9----9---10--|

D|-----------------4----------------4--5--0--2--7//*12--*12---|
A|-------*12---------------0--------0--0--0--0---0----------4-|
G|---*12-----*12-------0-------0----0--0--0--0-------*7-------|
D|-*12-*12-*12--12---0---0---0------4--5--0--2--------*7------|
A|-------------------------------0--0--0--0--0---------*7-----|
D|-----------------2---------------(0)(0)(0)(0)-----0---------|

D|-9\7------------------9-------------9/11\9------------------|
A|-----5-------5/7-*7-------*7---------------12-----------*12-|
G|-------6---6--------9---9------*7-------------11/12\11-9----|
D|-----------------------------9----9-------------------------|
A|------------------------------------0~~~~~~~~~~~~~~~~~~~----|
D|-5-------5--------6-----------------------------------------|

D|-----0--------0--------0~~~~~--*12-------------------0-0-x--|
A|---------------------------4~-------*12-------*12----0-0-0--|
G|-7--------7--------7-------------*7---*12~~~---------7-7-6--|
D|---0---0----0---0----0---0~~~-----*7------4-----*7---4-4-0--|
A|-----------------------------------*7------------*5--0-0-7--|
D|-4-------5--------7~~~~~~~~~~---0--------------------0-0-7--|

D|-------x-0-0h2b0-------------x---0---------x---0---------0--|
A|-*12---0---------------------x-------------x----------------|
G|-------6---------0-------0-2-4-------4-6-7-7-------6--------|
D|---*7--0-----------4-2-4-----0-0---0-------0-0---0----------|
A|----*5-7-----------------------------------0---------0~~----|
D|-------7---------------------5-------------7----------------|

D|----0---------------0--------------0----------------0-------|
A|------------------------------------------------------------|
G|7-------6---2---4-------4-6-7-7--------6~~~---0---------0---|
D|--0---0---0---0---0---0-0--------0---0----------------------|
A|--------------------------------------------9---7-----------|
D|9-------7---4---5-------5-----7-------------5-----0---0---0-|

D|----------0---------------0------------------0----------0~~-|
A|------0----------------------------------0--------------0~~-|
G|----0---------0-----0------------------0---------0------2~~-|
D|0h2-----2---2---0-4---2-------0----0h2-----2---2---0~~~-0~~-|
A|------------------3-----3---3---0-----------------------0~~-|
D|----------------------------------00--------------------0~~-|

Enjoy!!
Добавлено: 15.10.2013
Другие материалы по этой песне:
  • Аккорды и текст

Страница создана 15.10.2013
http://primanota.ru/josh-wilson/it-is-well-instrumental-chords.htm
Привет, Гость.
Предлагаем пройти революционный курс по гитаре.
Подарок от PrimaNota.Ru, забирай!