PrimaNota.ru - самый крупный в мире бесплатный архив песенных текстов, аккордов, табулатур и нот


Josh Verdes - Love At First Sight - таба, видео

Регистрация Запомнить меня
Войти через:  Facebook Google Twitter Vk Yandex Mail.ru

Josh Verdes - Love At First Sight - таба, видео

Печатать
Просмотров: 102
Tuning: Standard
Mute: x


Intro
e|-------------------------------------|
B|------2-2-----4-2------7-5-----7-7--5|
G|------1-1-----2-2------7-7-----7-7--7|
D|------2-2-----2-2------7-7-----6-6---|
A|----0--------------------------7-7--7|
E|------------2---2----7---7-----------|

1st verse
e|------------------------|
B|---2-------------------2|  Listen to the song for strumming/picking.
G|---2------2------4-----2| 
D|---2------1------4-----2|
A|----------2------5------|
E|------------------------|

Palms are shaking...

e|--------------------------|
B|-----------------5------7-|
G|---2------2------5------7-|
D|---2------1------3------6-|
A|---x------2------5------7-|
E|---2----------------------|


Bridge

e|---5-----5-----|---7----8-----|
B|---5-----5-----|---7----8---7-|
G|---7-----6-----|---9---10---7-|
D|---7-----7-----|---9---10---6-|
A|---x-----7-----|---x----x---7-|
E|---7-----5-----|---9---10-----|


I got this from Josh's youtube tutorial video for this song.
Here's the link to it : http://youtube.com/watch?v=YH6LqSDO1nI


This is also my first tab ever so if i messed up here and there, so take it easy on me ;-)

Hope you guys get this song. Happy playing =]

Добавлено: 13.04.2012
Другие материалы по этой песне:
  • Аккорды и текст

Страница создана 13.04.2012
http://primanota.ru/josh-verdes/love-at-first-sight-chords.htm
Привет, Гость.
Предлагаем пройти революционный курс по гитаре.
Подарок от PrimaNota.Ru, забирай!