PrimaNota.ru - самый крупный в мире бесплатный архив песенных текстов, аккордов, табулатур и нот


Josh Rouse - Princess On The Porch - текст песни, таба, видео

Регистрация Запомнить меня
Войти через:  Facebook Google Twitter Vk Yandex Mail.ru

Josh Rouse - Princess On The Porch - текст песни, таба, видео

Печатать
Просмотров: 92
princess on the porch, by Josh Rouse.
this is my first tab, but i think it's correct.
enjoy! //Levi Di Marco

the song is actually tuned up two steps, so use a capo or something to tune it up. 


intro:
 
         A
 -----0-----0----
 ---2-----2-----2
 ---------------- X4
 ----------------
 -0-----0-----0--
 ----------------

 1ST VERSE:
 
        A                 D               E                 A
 -----0-----0----|-----2-----2----|----------------|-----0-----0----|
 ---2-----2-----2|---3-----3-----3|-----0-----0----|---2-----2-----2|
 ----------------|----------------|---1-----1-----1|----------------|
 ----------------|-0-----0-----0--|----------------|----------------|
 -0-----0-----0--|----------------|-2-----2-----2--|-0-----0-----0--|
 ----------------|----------------|----------------|----------------|
     i searched for you, but you were nowhere to be found


        A                 D               E                F#m  
 -----0-----0----|-----2-----2----|----------------|----------------|
 ---2-----2-----2|---3-----3-----3|-----0-----0----|-----2-----2----|
 ----------------|----------------|---1-----1-----1|---2-----2-----2|
 ----------------|----------------|----------------|----------------|
 -0-----0-----0--|-0-----0-----0--|----------------|----------------|
 ----------------|----------------|-0-----0-----0--|-2-----2-----2--|
        a coastal state and all i stood on was frozen ground


        A                 D               E                F#m  
 -----0-----0----|-----2-----2----|----------------|----------------|
 ---2-----2-----2|---3-----3-----3|-----0-----0----|-----2-----2----|
 ----------------|----------------|---1-----1-----1|---2-----2-----2|
 ----------------|----------------|----------------|----------------|
 -0-----0-----0--|-0-----0-----0--|----------------|----------------|
 ----------------|----------------|-0-----0-----0--|-2-----2-----2--|
    and now i found you, it's been three months to the day


        A                 D               E                 A
 -----0-----0----|-----2-----2----|----------------|-----0-----0----|
 ---2-----2-----2|---3-----3-----3|-----0-----0----|---2-----2-----2|
 ----------------|----------------|---1-----1-----1|----------------|
 ----------------|-0-----0-----0--|----------------|----------------|
 -0-----0-----0--|----------------|-2-----2-----2--|-0-----0-----0--|
 ----------------|----------------|----------------|----------------|  
oh, and baby, it's so good to see you how i missed your face   


        A 
 -----0-----0----|
 ---2-----2-----2|
 ----------------| 
 ----------------|
 -0-----0-----0--|
 ----------------|

 

 2ND VERSE:


       A                 D               E                 A
 -----0-----0----|-----2-----2----|----------------|-----0-----0----|
 ---2-----2-----2|---3-----3-----3|-----0-----0----|---2-----2-----2|
 ----------------|----------------|---1-----1-----1|----------------|
 ----------------|-0-----0-----0--|----------------|----------------|
 -0-----0-----0--|----------------|-2-----2-----2--|-0-----0-----0--|
 ----------------|----------------|----------------|----------------|
     the bedroom light was on as you waltzed off thru the hall


        A                 D               E                F#m  
 -----0-----0----|-----2-----2----|----------------|----------------|
 ---2-----2-----2|---3-----3-----3|-----0-----0----|-----2-----2----|
 ----------------|----------------|---1-----1-----1|---2-----2-----2|
 ----------------|----------------|----------------|----------------|
 -0-----0-----0--|-0-----0-----0--|----------------|----------------|
 ----------------|----------------|-0-----0-----0--|-2-----2-----2--|
   my hands are shaking, it was like i never knew you at all


        A                 D               E                F#m  
 -----0-----0----|-----2-----2----|----------------|----------------|
 ---2-----2-----2|---3-----3-----3|-----0-----0----|-----2-----2----|
 ----------------|----------------|---1-----1-----1|---2-----2-----2|
 ----------------|----------------|----------------|----------------|
 -0-----0-----0--|-0-----0-----0--|----------------|----------------|
 ----------------|----------------|-0-----0-----0--|-2-----2-----2--|
      you move so slowly, with such eloquence and grace



        A                 D               E                F#m  
 -----0-----0----|-----2-----2----|----------------|----------------|
 ---2-----2-----2|---3-----3-----3|-----0-----0----|-----2-----2----|
 ----------------|----------------|---1-----1-----1|---2-----2-----2|
 ----------------|----------------|----------------|----------------|
 -0-----0-----0--|-0-----0-----0--|----------------|----------------|
 ----------------|----------------|-0-----0-----0--|-2-----2-----2--|
oh and baby, it's so good to see you, how i missed your face



        A                 D               E                 A
 -----0-----0----|-----2-----2----|----------------|-----0-----0----|
 ---2-----2-----2|---3-----3-----3|-----0-----0----|---2-----2-----2|
 ----------------|----------------|---1-----1-----1|----------------|
 ----------------|-0-----0-----0--|----------------|----------------|
 -0-----0-----0--|----------------|-2-----2-----2--|-0-----0-----0--|
 ----------------|----------------|----------------|----------------|
 oh baby, it's so good to see you, how i missed your face

 
(open chords):
 
 A   D   E   A
 A   D   E   A 


 3RD VERSE: (open chords)

 A        D                 E               A
 princess on the porch as i waited for the flood

 
 A         D              E                             F#m
 gave you all the love i could, i gave you all that i should


 A            D               E          F#m
 and now you tell me you are dying yo be free


 A                D                E                 F#m
 oh baby it's so good to see you, why'd you have to leave 


 A                D                E                E      A
 oh baby it's so good to see you, why'd you have to... to leave


 A   D   E   A
 A   D   E   A
 A   D   E   A
 A   D   E   E   E   A


 4TH VERSE: (open chords)

 A            D                 E                               A
 i walked out to my car, in my pocket that's where i found the key
 

 A           D                 E                  F#m
 i turned around to see you staring right back at me


 A              D                E                       F#m 
 that's when i realized how you wanted and it will never be


 A                  D                   E            F#m
 oh baby, it's not you i was searching for i'ts only me


 A                  D                   E            F#m
 oh baby, it's not you i was searching for it's only me


 A                  D                   E             E   E   E   
 oh baby, it's not you i was searching for it's only...


           A   D   E    A
 it's only me


 A   D   E   A


 A                  D                   E
 oh baby, it's not you i was searching for it's only


 

 THE END
Добавлено: 29.07.2012
Другие материалы по этой песне:
  • Аккорды и текст

Страница создана 29.07.2012
http://primanota.ru/josh-rouse/princess-on-the-porch-chords.htm
Привет, Гость.
Предлагаем пройти революционный курс по гитаре.
Подарок от PrimaNota.Ru, забирай!