PrimaNota.ru - самый крупный в мире бесплатный архив песенных текстов, аккордов, табулатур и нот


Josh Pyke - Our House Breathing - текст песни, таба, видео

Регистрация Запомнить меня
Войти через:  Facebook Google Twitter Vk Yandex Mail.ru

Josh Pyke - Our House Breathing - текст песни, таба, видео

Печатать
Просмотров: 101
Hey :) this is my first tab so i can't promise that everything is right. if you find 
faults please tell me so and i'll change it! I think he's playing the last refrain a bit 
different though but... hope it's okay! :)

E|----------------------------------------------------------------------|
B|----1-----1---0-----0---1-----0-------0---1-----1---1-----1---1-----1-|
G|----0-----0---0-----0---0-----0-------0---0-0/2-0---0-----0---0-0/2-0-|
D|------0/2-----------------0/2-------------------------0/2-------------|
A|--3-------------0/2---3-----------0/2-------------3-------------------|
D|------------2-------------------2-------3-------------------3---------|

---0-----0-----0-----0-|---0-----0-----0-----0-| (play the last part
---1-----1-----1-----1-|---1-----1-----1-----1-|  between the chorus
-----------0/2---------|-----------0/2---------|  and the verse)
-----0/2---------0/2---|-----0/2---------0/2---|
-0---------------------|-0---------------------|
-----------------------|-----------------------|

Verse:

E|-------------------------------------------------------------------------|
B|---0---0---0---0---0---0---0---0---0---0---0---0---0---0---0---0---0---0-|
G|---0---0---0---0---0---0---0---0---0---0---0---0---0---0---0---0---0---0-|
D|-------------------------------------------------------------------------|
A|-3---2-------------------3---2-------------------3---2---0---0---2---2---|
E|---------2---2---5---5-----------2---2---5---5---------------------------|

-------------------------------------------------------------------------|
---0---0---0---0---0---0---0---0---0---0---0---0---0---0---0---0---0---0-|
---0---0---0---0---0---0---0---0---0---0---0---0---0---0---0---0---0---0-|
-------------------------------------------------------------------------|
-3---2---0---0-----------3---2-------------------3---2-------------------|
-----------------5---5-----------2---2---5---5-----------2---2---5---5---|

-----------------------------------------------------------------|
---0---0---0---0---0---0---0---0---0---0---0---0---0---0---0---0-|
---0---0---0---0---0---0---0---0---0---0---0---0---0---0---0---0-|
-----------------------------------------------------------------|
-3---2---0---0---2---2---3---2---0---0---2---2---3---3---5---5---|
-----------------------------------------------------------------|
Добавлено: 18.04.2012
Другие материалы по этой песне:
  • Аккорды и текст

Страница создана 18.04.2012
http://primanota.ru/josh-pyke/our-house-breathing-chords.htm
Привет, Гость.
Предлагаем пройти революционный курс по гитаре.
Подарок от PrimaNota.Ru, забирай!