PrimaNota.ru - самый крупный в мире бесплатный архив песенных текстов, аккордов, табулатур и нот


Josh Pyke - New Year Song - таба, видео

Регистрация Запомнить меня
Войти через:  Facebook Google Twitter Vk Yandex Mail.ru

Josh Pyke - New Year Song - таба, видео

Печатать
Просмотров: 199
Уроки эстрадного вокала в Санкт-Петербурге
=====New Year Song - Josh Pyke=====

Tabbed by: FurTunes
TUNING: Capo 2nd (for Bottom 5 Strings only)

NOTES: So, I think that there must have been another guitar or the bass
note is dropped to a C# or something, but I worked out that it is relativly
easy to play if you can put the capo on the 2nd fret for every string
except the bass E string. I'm sure you'll work it out. Also, 020 is
actually 0h2p0 but the typing doesn't fit with the timing. I tabbed this on
New Years Day 2011 as my first tab.

f# ||-----------------------------------------------------------------|
C# ||---3---3---3---3---3---3---3---3---3---3---3---3---3---3---3---3-|
A  ||-----2-------0h2-----2-------0h2-----2-------0h2-----2-------0h2-|
E  ||-0-------0-------0-------0-------0-------0-------0-------0-------|
B  ||-----------------------------------------------------------------|
E  ||-----------------------------------------------------------------|


e|-----------------------------------------------------------------|
B|---3---3---3---3---3---3---3---3---3---3---3---3---3---3---3---3-|
G|-----2-------0-------2---0---2-------2-------------------2-------|
D|-0-------2-------4---------------0-----------0-------0-------0---|
A|-----------------------------------------4-----------------------|
E|-------------------------------------------------0(actual)-------|


e|-----------------------------------------------------------------|
B|---3---3---3---3---3---3---3---3---3---3---3---3---3---3---3---3-|
G|---------------------2---------------2-------0h2-----2-------0h2-|
D|-----0-------0---------------------------0-------0-------0-------|
A|-----------------0-----------------------------------------------|
E|-5-------4---------------2---2---0-------------------------------|

If you're freezing on your left side and you're boiling on your right side,
then I guess you might be warm upon the line
e|-----------------------------------------------------------------|
B|---3---3---3---3---3---3---3---3---3---3---3---3---3---3---3---3-|
G|-----2-------0-------2---0---2-------2-------------------2-------|
D|-0-------2-------4---------------0-----------0-------0-------0---|
A|-----------------------------------------4-----------------------|
E|-------------------------------------------------0---------------|

and there are many ways one can divide a life and I've got mine
e|-----------------------------------------------------------------|
B|---3---3---3---3---3---3---3---3---3---3---3---3---3---3---3---3-|
G|-------------------------------------2-------0h2-----2-------2---|
D|-----0-------0-------0-------------------0-------0-------0-------|
A|-----------------0-----------------------------------------------|
E|-5-------4---------------2---2---0-------------------------------|

I was flying home and I saw the sunset from the sky. I saw the dark come
spooning down upon the land
e|-----------------------------------------------------------------|
B|---3---3---3---3---3---3---3---3---3---3---3---3---3---3---3---3-|
G|-----2-------0-------2---0---2-------2-------------------2-------|
D|-0-------2-------4---------------0-----------0-------0-------0---|
A|-----------------------------------------4-----------------------|
E|-------------------------------------------------0---------------|

And I thought about the distance we all cover and it made me sad
e|-----------------------------------------------------------------|
B|---3---3---3---3---3---3---3---3---3---3---3---3---3---3---3---3-|
G|-------------------------------------2-------0h2-----2-------2---|
D|-----0-------0-------0-------------------0-------0-------0-------|
A|-----------------0-----------------------------------------------|
E|-5-------4---------------2---2---0-------------------------------|


CHORUS:

And as the old year took a bow and joined the setting sun, it comes around
again like a refrain
e|-----------------------------------------------------------------|
B|---3---3---3---3---3---3---3---3---3---3---3---3---3---2---2---3-|
G|-----------------------------------------------------------------|
D|-----------------------------------------------------------------|
A|-----------------0---0---------------------------0---0---0---0---|
E|-5---5---4---4-----------2---2---5---5---4---4-------------------|

And we all sing along and think of things we should've done, till one year
when the new year never came
e|-----------------------------------------------------------------|
B|---3---3---3---3---3---3---3---3---3---3---3---3---3---3---3---3-|
G|-----------------------------------------------------------------|
D|-----------------------------------------------------------------|
A|-----------------0---0-------------------------------------------|
E|-5---5---4---4-----------2---2---2---2---4---4---5---5---5---5---|


e|---------------------------------|
B|---3---3---3---3---3---3---3---3-|
G|---------------------------------|
D|---------------------------------|
A|-------------------------0---0---|
E|-2---2---4---4---5---5-----------|


e|-----------------------------------------------------------------|
B|---3---3---3---3---3---3---3---3---3---3---3---3---3---3---3---3-|
G|-----------------------------------------------------------------|
D|---------0---------------0---------------0---------------0-------|
A|-----0-------020-----0-------020-----0-------020-----0-------0---|
E|-0---------------0---------------0---------------0---------------|


Little comfort, little comfort. I'm afraid you're not enough. I've had some
learning both unwelcome and unkind
e|-----------------------------------------------------------------|
B|---3---3---3---3---3---3---3---3---3---3---3---3---3---3---3---3-|
G|-----2-------0-------2---0---2-------2-------------------2-------|
D|-0-------2-------4---------------0-----------0-------0-------0---|
A|-----------------------------------------4-----------------------|
E|-------------------------------------------------0---------------|

And it seems there's but one story told and then re-worked all throughout time
e|-----------------------------------------------------------------|
B|---3---3---3---3---3---3---3---3---3---3---3---3---3---3---3---3-|
G|-----------------------------------------------------------------|
D|-----0-------0-------0-------0-----------0---------------0-------|
A|-----------------0-------------------0-------020-----0-------0---|
E|-5-------4---------------2-------0---------------0---------------|

Are you a good one or a cruel one? It is just the laws that make us bad.
What can we do to measure where we stand
e|-----------------------------------------------------------------|
B|---3---3---3---3---3---3---3---3---3---3---3---3---3---3---3---3-|
G|-----2-------0-------2---0---2-------2-------------------2-------|
D|-0-------2-------4---------------0-----------0-------0-------0---|
A|-----------------------------------------4-----------------------|
E|-------------------------------------------------0---------------|

Well I judge myself by what I give to someone else so I'll know where I am
e|-----------------------------------------------------------------|
B|---3---3---3---3---3---3---3---3---3---3---3---3---3---3---3---3-|
G|-----------------------------------------------------------------|
D|-----0-------0-------0-------------------------------------------|
A|-----------------0-----------------------------------0-------0---|
E|-5-------4---------------2---2---2---2---2---2---4-------0-------|


e|-------------------------|
B|---3---3---3---3---3---3-|
G|-----------------2-------|
D|-0-----------0-------0---|
A|-----020-----------------|
E|---------0---------------|


CHORUS:

And as the old year took a bow and joined the setting sun, it comes around
again like a refrain
e|-----------------------------------------------------------------|
B|---3---3---3---3---3---3---3---3---3---3---3---3---3---2---2---3-|
G|-----------------------------------------------------------------|
D|-----------------------------------------------------------------|
A|-----------------0---0---------------------------0---0---0---0---|
E|-5---5---4---4-----------2---2---5---5---4---4-------------------|

And we all sing along and think of things we should've done, till one year
when the new year never came
e|-----------------------------------------------------------------|
B|---3---3---3---3---3---3---3---3---3---3---3---3---3---3---3---3-|
G|-----------------------------0-------0---------------------------|
D|-----0-------0-------0-------------------------------------------|
A|-----------------0-----------------------------------------------|
E|-5-------4---------------2-------2-------4---4---5---5---5---5---|

One year when the new year never caaaaaame
e|-----------------------------------------------------------------|
B|---3---3---3---3---3---3---3---3---3---3---3---3---3---3---3---3-|
G|-----------------------------------------2---0h2-----2-------2---|
D|-------------------------------------------------0-------0-------|
A|-------------------------0---0-------0---------------------------|
E|-2---2---4---4---5---5-----------0-------------------------------|

Ohhhhh Ohhhhhhh Ohhhhhh
e|-----------------------------------------------------------------|
B|---3---3---3---3---3---3---3---3---3---3---3---3---3---3---3---3-|
G|-----2-------2-----------------------2-------0-------------------|
D|-0-------0-----------0-------------------------------0---2---0---|
A|-----------------4-------0-------3-------2-------4---------------|
E|-----------------------------0-----------------------------------|


e|---------------------------------|
B|---3---3---3---3---3---3---3---3-|
G|-------------0h2-----0---2-------|
D|---------0-------0-----------0---|
A|-----0---------------------------|
E|-0-------------------------------|

Ohhhhh Ohhhhhhh Ohhhhhh
e|-----------------------------------------------------------------|
B|---3---3---3---3---3---3---3---3---3---3---3---3---3---3---3---3-|
G|-----2-------2-----------------------2-------0-------------------|
D|-0-------0-----------0-------------------------------0---2---0---|
A|-----------------4-------0-------3-------2-------4---------------|
E|-----------------------------0-----------------------------------|


e|-------------------------------------------------|
B|---3---3---3---3---3---3---3---3---3---3---3---3-|
G|-------------------------------------------------|
D|-2---0---2---0-----------0---------------0-------|
A|---------------------0-------020-----0-------0---|
E|-----------------0---------------0---------------|


CHORUS:

And as the old year took a bow and joined the setting sun, it comes around
again like a refrain
e|-----------------------------------------------------------------|
B|---3---3---3---3---3---3---3---3---3---3---3---3---3---2---2---3-|
G|-----------------------------------------------------------------|
D|-----------------------------------------------------------------|
A|-----------------0---0---------------------------0---0---0---0---|
E|-5---5---4---4-----------2---2---5---5---4---4-------------------|

And we all sing along and think of things we should've done, till one year
when the new year never came
e|-----------------------------------------------------------------|
B|---3---3---3---3---3---3---3---3---3---3---3---3---3---3---3---3-|
G|-----------------------------------------------------------------|
D|-----------------------------------------------------------------|
A|-----------------0---0-------------------------------------------|
E|-5---5---4---4-----------2---2---2---2---4---4---5---5---5---5---|

Don't let that sense of urgency betray you in the dark. The rustle of a
curtain's not a sign
e|-----------------------------------------------------------------|
B|---3---3---3---3---3---3---3---3---3---3---3---3---3---2---2---3-|
G|-----------------------------------------------------------------|
D|-----------------------------------------------------------------|
A|-----------------0---0---------------------------0---0---0---0---|
E|-5---5---4---4-----------2---2---5---5---4---4-------------------|

Don't frame this picture now as some kind of closing remark and most of all
stay warm upon the line
e|-----------------------------------------------------------------|
B|---3---3---3---3---3---3---3---3---3---3---3---3---3---3---3---3-|
G|-----------------------------------------------------------------|
D|-----------------------------------------------------------------|
A|-----------------0---0-------------------------------------------|
E|-5---5---4---4-----------2---2---2---2---4---4---5---5---5---5---|

Most of all stay warm upon the line
e|---------------------------------|
B|---3---3---3---3---3---3---3---3-|
G|---------------------------------|
D|---------------------------------|
A|---------------------------------|
E|-2---2---4---4---5---5---5---5---|

It's best if you stay warm upon the liiii---
e|-----------------------------------------------------------------|
B|---3---3---3---3---3---3---3---3---3---3---3---3---3---3---3---3-|
G|-----------------------------------------------------------------|
D|-----------------------------------------------------------------|
A|-------------------------0---0---0---0---0---0---0---0---0---0---|
E|-2---2---4---4---5---5-------------------------------------------|

---iiine
e|---------------------------||
B|---3---3---3---3---3---3---||
G|---------------------------||
D|---------------------------||
A|-0---0---0---0---0---0-----||
E|-------------------------0-||

Sorry that its so long but I wanted to get the lyrics in there too.
Hope you like it.
Добавлено: 24.04.2012
Другие материалы по этой песне:
  • Аккорды и текст

Страница создана 24.04.2012
http://primanota.ru/josh-pyke/new-year-song-chords.htm
Привет, Гость.
Предлагаем пройти революционный курс по гитаре.
Подарок от PrimaNota.Ru, забирай!