PrimaNota.ru - самый крупный в мире бесплатный архив песенных текстов, аккордов, табулатур и нот


Josh Pyke - Love Lies - таба, видео

Регистрация Запомнить меня
Войти через:  Facebook Google Twitter Vk Yandex Mail.ru

Josh Pyke - Love Lies - таба, видео

Печатать
Просмотров: 130
----------------------------------------------------------------------------
                             Love Lies - Josh Pyke
----------------------------------------------------------------------------
Tabbed by: gabe_latino
Email: gabe_latino@hotmail.com 

Tuning: Drop-D - Capo 6th fret

hello all, i got this tab from seeing josh play it live and also this video - 
http://www.youtube.com/watch?v=nNuXwCaeIro
it sounds right to me, and heres a video of me playing all of these parts too
http://www.youtube.com/watch?v=XbnynYoKc2U

all numbers are with respect to the capo
im sure you can work out the order and how many times to play it etc. if you need 
help just email me


Intro and verse:
e|----------------------------------------------------------------------|
B|-0-----0---5p0---0------0-----0---3p0---0-----------------------------|
G|---0-----0-----0---0------0-----0-----0---0---------------------------|
D|-----7----------------------5-----------------------------------------|   x2
A|-7---------7------------5---------5-----------------------------------|
E|----------------------------------------------------------------------|


e|-----------------------------------------------------------------------------------|
B|-0------0-----0-----0-----0------------0-----0-------0-----0---0--let it ring------|
G|---0------0-----0-----0-----0-------0----0-----0-------0-----0---------------------|
D|------5-----------5-----------5---5--------5-------------5-------------------------|
A|-3----------5----------------------------------------3---------5--let it ring------|
E|--------------------------2-----4------5-------------------------------------------|



Bridge:
e|--------------------------------------------------------------------|
B|-5-----5----5-----5----5-----5---5-----5----------------------------|
G|---0-----0----0-----0----0-----0---0-----0--------------------------|
D|-----2----------2----------2---------2------------------------------|     x2
A|-4----------4----------3---------3----------------------------------|
E|--------------------------------------------------------------------|


e|--------------------------------------------------------------------|
B|-5-----5----5-----5----5--let it ring-------------------------------|
G|---0-----0----0-----0-----------------------------------------------|
D|-----2----------2---------------------------------------------------|     x2
A|-4----------4----------3--let it ring-------------------------------|
E|--------------------------------------------------------------------|


Chorus & Outro:
    Am        D         G/A         C
e|--------------------------------------------------------------------|
B|-1-----1----3----3----3-----------1---------------------------------|
G|---2-----2----2----2----0----0------0-----0-------------------------|
D|-----2----------0---------4----0------2-----0-----------------------|     x3
A|-0--------------------------------3-----2---------------------------|
E|------------0---------5-----4---------------------------------------|

    Bm                  D
e|--------------------------------------------------------------------|
B|-3-----3---3-----3----3-----3---3----(3)----3--let it ring----------|
G|---2-----2---2-----2----2-----2---2-----0---------------------------|
D|-----2---------2----------0---------0-----0-------------------------|
A|-2---------2----------0---------3-----2-----0--let it ring----------|
E|--------------------------------------------------------------------|

Lyrics
Summer salted all our winter wounds
And pressed them cool against the tiles,
Keep your heat when seasons die,
And darken like the night

Unfold this day into a paper crane
And fold the wings from my desires,
Courage can be written down,
And practiced like a lie

I followed my longing to feel something new,
My love, it followed me
right back to you

Well I trace the map in the curve of your spine,
I get lost by the hour in the blink of your eye,
In the shadowed valleys of your backbone I find
Love lies

Summer tried to drown my shadow in the sea,
But my shadow swims along beneath,
And mirrors me on blackened shores,
Our darkness never leaves

I followed my longing to feel something new,
My love, it followed me
right back to you

Well I trace the map in the curve of your spine,
I get lost by the hour in the blink of your eye,
In the shadowed valleys of your backbone I find
Love lies

So I followed my longing,
my longing won't die,
I'm still tracing the map in the curve of your spine,
And the shadows are lengthening into the night,
Well, love lies

Добавлено: 22.10.2013
Другие материалы по этой песне:
  • Аккорды и текст

Страница создана 22.10.2013
http://primanota.ru/josh-pyke/love-lies-chords.htm
Привет, Гость.
Предлагаем пройти революционный курс по гитаре.
Подарок от PrimaNota.Ru, забирай!