PrimaNota.ru - самый крупный в мире бесплатный архив песенных текстов, аккордов, табулатур и нот


Josh Pyke - Lighthouse Song - текст песни, таба, видео

Регистрация Запомнить меня
Войти через:  Facebook Google Twitter Vk Yandex Mail.ru

Josh Pyke - Lighthouse Song - текст песни, таба, видео

Печатать
Просмотров: 160
-------------------------------------------------------------------------------
                             Lighthouse song – Josh Pyke
-------------------------------------------------------------------------------
Tabbed by: Aussiedude777

Tuning: STANDARD

Hey, I hope you like the tab, if you do please rate and if not im happy to listen to 
Thanks.

VERSE

          F

e|--------1--------1-------1------1-----1-----1-------1--------1-------------|
B|--------1--------1-------1------1-----1-----1-------1--------1-------------|
G|----------------------------2------2---------------------------------------|
D|---------------------3--------------------3--------------------------------|
A|------------3-----------------------------------3--------------------------|
E|----0----------------------------------------------------0-----------------|

          F

e|---------------------------------------------------------------------------|
B|--------2--------2--------2----------2-------------------------------------|
G|--------3--------3--------3----------3-------------------X5----------------|
D|---------------------------------------------------------------------------|
A|----3--------3---------3--------3------------------------------------------|
E|---------------------------------------------------------------------------|

CHORUS

          F        Am      Gmaj       F              B/C

e|--------1---------0--------3--------1---------------5----------------------|
B|--------1---------1--------3--------1---------------5----------------------|
G|--------2---------2--------4--------2------X3-------5----------------------|
D|--------3---------2--------5--------3---------------7----------------------|
A|--------3---------0--------5--------3---------------7----------------------|
E|--------1---------X--------3--------1---------------5----------------------|

e|---------------------------------------------------------------------------|
B|------------3-------3--------3-------3-------------------------------------|
G|------------2-------2--------2-------2--------------------X4---------------|
D|---------------------------------------------0h2---------------------------|
A|-------3---------3--------3--------3---------------------------------------|
E|---------------------------------------------------------------------------|

VERSE

CHORUS X2

Lyrics-

And I've been getting urges late at night
To walk and walk for days and throughout lights
Through people's houses, picking food from plates
Through people's gardens, picking locks on gates

So we are moving to a lighthouse, you and I
While seas drown sailors, we'll be locked up safe and dry
And though our doors may knock and rattle in the wind
I'll just hold you tight and we'll not let those fuckers in

And I've been leaving gifts out in the woods
That someone might stumble upon and wonder at their origins
I've been feeling like a fox with sad old eyes
Whose skulk has all moved on to leave the dark and empty den behind

So we are moving to a lighthouse, you and I
While seas drown sailors, we'll be locked up safe and dry
And though our doors may knock and rattle in the wind
I'll just hold you tight and we'll not let those fuckers in

I'll anull these little walls of attrition and these invocations
That's seen me holding my camera out at arms length
To self-document these new locations
When I should be leaning against you
Deciding on things to get done
And you should be leaning on fountains
And filling my space up and breathing the air from my lungs

Na na na na

So we are moving to a lighthouse, you and I
While seas drown sailors, we'll be locked up safe and dry
And we are moving to a lighthouse, you and I
Our beams will burn the clouds to beacons in the sky
And though our doors may knock and rattle in the wind
The wind...
I'll just hold you tight and we'll not let those fuckers in

===============================================================================
Добавлено: 23.02.2012
Другие материалы по этой песне:
  • Аккорды и текст

Страница создана 23.02.2012
http://primanota.ru/josh-pyke/lighthouse-song-chords.htm
Привет, Гость.
Предлагаем пройти революционный курс по гитаре.
Подарок от PrimaNota.Ru, забирай!