PrimaNota.ru - самый крупный в мире бесплатный архив песенных текстов, аккордов, табулатур и нот


Josh Klinghoffer - Laverne And Shirley Theme Live - таба, видео

Регистрация Запомнить меня
Войти через:  Facebook Google Twitter Vk Yandex Mail.ru

Josh Klinghoffer - Laverne And Shirley Theme Live - таба, видео

Печатать
Просмотров: 86
Уроки эстрадного вокала в Санкт-Петербурге
Intro
    
   C                 C                 Cm7               D#7 (?)
e|-0-0-0-0-0-0-0-0-|-0-0-0-0-0-0-0-0-|-3-3-3-3-3-3-3-3-|-6-6-6-6-6-6-6-6-|
B|-1-1-1-1-1-1-1-1-|-1-1-1-1-1-1-1-1-|-4-4-4-4-4-4-4-4-|-8-8-8-8-8-8-8-8-|
G|-0-0-0-0-0-0-0-0-|-0-0-0-0-0-0-0-0-|-3-3-3-3-3-3-3-3-|-6-6-6-6-6-6-6-6-|
D|-2-2-2-2-2-2-2-2-|-2-2-2-2-2-2-2-2-|-5-5-5-5-5-5-5-5-|-8-8-8-8-8-8-8-8-|
A|-3-3-3-3-3-3-3-3-|-3-3-3-3-3-3-3-3-|-3-3-3-3-3-3-3-3-|-6-6-6-6-6-6-6-6-|
E|-x-x-x-x-x-x-x-x-|-x-x-x-x-x-x-x-x-|-x-x-x-x-x-x-x-x-|-x-x-x-x-x-x-x-x-|

Bridge

e|------------------------|
B|-8-8-10-11--------------|
G|-9-9-10-12--------------|
D|------------------------|
A|-------------7-7-7-8-10-|
E|------------------------|


Vers

   F            A            Dm           Bb
e|-1----------|-5----------|-5----------|-6----------|
B|-1----------|-5----------|-6----------|-6----------|
G|-2----------|-6----------|-7----------|-7----------|
D|-3----------|-7----------|-7----------|-8----------|
A|-3----------|-7----------|-5----------|-8----------|
E|-1----------|-5----------|-x----------|-7----------|

   F            Dm           C            
e|-1----------|-5----------|-3----------|------------|
B|-1----------|-6----------|-5----------|------------|
G|-2----------|-7----------|-5----------|------------|
D|-3----------|-7----------|-5----------|------------|
A|-3----------|-5----------|-3----------|-7-7-7-8-10-|
E|-1----------|-x----------|-x----------|------------|

Vers 2

  Fmaj7         Dm6          Cmaj7        Cmaj7
e|------------|-x----------|-3----------|-3----------|
B|-10---------|-6----------|-5----------|-5----------|
G|-9----------|-4----------|-4----------|-4----------|
D|-x----------|-x----------|-5----------|-5----------|
A|-8----------|-5----------|-3----------|-3----------|
E|-x----------|-x----------|-x----------|-x----------|

   Bb           Bb (add 13)  C(no5)
e|-6----------|-6----------|-x----------|------------|
B|-6----------|-6-(8)------|-5----------|------------|
G|-7----------|-7----------|-5----------|------------|
D|-8----------|-8----------|-x----------|------------|
A|-8----------|-8----------|-3----------|-7-7-7-8-10-|
E|-6----------|-6----------|-x----------|------------|

Vers

   F            A            Dm           Bb
e|-1----------|-5----------|-5----------|-6----------|
B|-1----------|-5----------|-6----------|-6----------|
G|-2----------|-6----------|-7----------|-7----------|
D|-3----------|-7----------|-7----------|-8----------|
A|-3----------|-7----------|-5----------|-8----------|
E|-1----------|-5----------|-x----------|-6----------|

   F            Dm           C            
e|-1----------|-5----------|-3----------|------------|
B|-1----------|-6----------|-5----------|------------|
G|-2----------|-7----------|-5----------|------------|
D|-3----------|-7----------|-5----------|------------|
A|-3----------|-5----------|-3----------|-7-7-7-8-10-|
E|-1----------|-x----------|-x----------|------------|

Vers 3 F Dm Bb Bb

   F            Dm           Bb           C
e|-1----------|-5----------|-6----------|-3----------|
B|-1----------|-6----------|-6----------|-5----------|
G|-2----------|-7----------|-7----------|-5----------|
D|-3----------|-7----------|-8----------|-5----------|
A|-3----------|-5----------|-8----------|-3----------|
E|-1----------|-x----------|-6----------|-x----------|

   F            Dm           Bb           Bb 
e|-1----------|-5----------|-6----------|-6----------|-----------------|
B|-1----------|-6----------|-6----------|-6----------|-----------------|
G|-2----------|-7----------|-7----------|-7----------|-----------------|
D|-3----------|-7----------|-8----------|-8----------|-----------------|
A|-3----------|-5----------|-8----------|-8----------|-----------------|
E|-1----------|-x----------|-6----------|-6----------|-6-6-6-6-6-6-6-6-|


(Little Addition he played at the end)

e|--------------|
B|--8-8-8-10-11-|
G|--------------|
D|--------------|
A|--7-7-7-8--10-|
E|--------------|
Добавлено: 26.06.2016
Другие материалы по этой песне:
  • Аккорды и текст

Страница создана 26.06.2016
http://primanota.ru/josh-klinghoffer/laverne-and-shirley-theme-live-chords.htm
Привет, Гость.
Предлагаем пройти революционный курс по гитаре.
Подарок от PrimaNota.Ru, забирай!