PrimaNota.ru - самый крупный в мире бесплатный архив песенных текстов, аккордов, табулатур и нот


Josh Kelley - Naleigh Moon - таба, видео

Регистрация Запомнить меня
Войти через:  Facebook Google Twitter Vk Yandex Mail.ru

Josh Kelley - Naleigh Moon - таба, видео

Печатать
Просмотров: 92
-------------------------------------------------------------------------------
                             Josh Kelley - Naleigh Moon
-------------------------------------------------------------------------------
Tabbed by: Jason
E-mail: jason.r115@hotmail.co.uk

Tuning: Josh plays in half-step down tuning normally and he has a capo on the
2nd fret for this song but if you're playing in Standard you can just capo
the 1st fret for this song.

This tab is for the main riff that is played throughout the song.  I'll add
the verse and chorus riffs soon as I work them out

This is also my first tab and I think its right, if not then im pretty sure
its very close.

e|-------------------------------------3-3---1p0-----------0-----------------|
B|---------------------1-3-----3-5---------------1-------1---1---------------|
G|-------0-----4-5-----------------------------------0h2-------2-------------|
D|-----3-------------2-------2-------2-------------3-------------3-----------|
A|---3-------5-----0-------3-------3-------3---------------------------------|
E|-1-------3-----------------------------------------------------------------|

h - Hammer-On
p - Pull-Off
Добавлено: 24.08.2013
Вам также может быть интересно:
Другие материалы по этой песне:
  • Аккорды и текст

Страница создана 24.08.2013
http://primanota.ru/josh-kelley/naleigh-moon-chords.htm
Привет, Гость.
Предлагаем пройти революционный курс по гитаре.
Подарок от PrimaNota.Ru, забирай!