PrimaNota.ru - самый крупный в мире бесплатный архив песенных текстов, аккордов, табулатур и нот


Josh Groban - Si Volvieras A Mi - аккорды и текст, таба, видео

Регистрация Запомнить меня
Войти через:  Facebook Google Twitter Vk Yandex Mail.ru

Josh Groban - Si Volvieras A Mi - аккорды и текст, таба, видео

Печатать
Просмотров: 274
Si Volvieras A Mi
Josh Groban
-------------------------------------------------------------------------
SI VOLVIERAS A MI - Josh Groban
-------------------------------------------------------------------------
Tabbed by: Kengus

Great guitar song. Heavily Spanish-style, so well fun to try to play. 

Tuning half-step down!

INTRO(play Spanish guitarish:))
d|-----------------3----3-1-0---5-7-------------0---|
A|----0-1-3/6-5--1------------3-------5h6p5-3-6\0---|
F|---2------------------------------------------1---|
C|--2-----------------0-------------------------0---|
G|-0--------------------------------------------2---|
D|----------------------------------0-----------0---|

(piano plays Am thingy two times)

VERSE1
       Am
Como sobrevivir?
        Em
como calmar mi sed?
       Am
como seguir sin ti?
        Dm/F       E7
como saltar sin red?

BRIDGE/pre-chorus
F                    C       G
Con ese adios tan salvaje y cruel
F                Am
me deshojaste la piel
F                 C         G
la eternidad en final se quedo 
      Dm                  E7
y un desierto es ...mi corazon...

CHORUS
C                 G
Ay si volvieras a mi
       Am        Am/G      F
encenderia el sol mil primaveras
C                 G
si regresaras por mi
           Am        Am/G         F
seria un milagro cada beso que me dieras
Dm             E7
   pero hoy te vas
                 Am
y no hay vuelta atras.

VERSE2
             Am
Que habra despues de ti?
              Em
mas que estas lagrimas
            Am
si hasta la lluvia en el jardin

toca una musica sin fin...
          Dm    E7
sombria y tragica...

BRIDGE/pre-chorus (same chords as above)
Hoy de rodillas le pido a Dios
que por el bien de los dos
algo en tu pecho se quiebre al oir
a este loco que se muere de amor...

CHORUS (same chords as above)>> 

INTERLUDE
G#--Fm--G--G#--Fm...

        C#
...y desataste un huracan
        Bbm
fuego y furia de un volcan
      Gm7b5
que no se apagar...
       C
como olvido que fui
  C#           Eb
esclavo de ti, ya no puedo mas... 


CHORUS(modulated)
D           A       Bm         Bm7/A         G
Aaaaaaaaaay -- si volvieras a mi vida, si volvieras
D                 A
si regresaras por mi
       D         Bm
seria feliz otra vez
Em             A
   pero hoy te vas
F#7                 B
   y no hay vuelta atras.


Some chords used:
 Dm/F      E7      Am/G    Gm7b5    Bm7/A
--1--    --0--    --0--    --x--    --2--    
--3--    --0--    --1--    --2--    --3--
--2--    --1--    --2--    --0--    --4-- 
--0--    --0--    --2--    --3--    --4--
--0--    --2--    --0--    --1--    --0--
--1--    --0--    --3--    --3--    --x--


| /  slide up
| \  slide down
| h  hammer-on
| p  pull-off
| ~  vibrato
| +  harmonic
| x  Mute note
==========================================================
Добавлено: 24.05.2012
Другие материалы по этой песне:

Страница создана 10.03.2012
http://primanota.ru/josh-groban/si-volvieras-a-mi-chords.htm
Привет, Гость.
Предлагаем пройти революционный курс по гитаре.
Подарок от PrimaNota.Ru, забирай!