PrimaNota.ru - самый крупный в мире бесплатный архив песенных текстов, аккордов, табулатур и нот


Josh Garrels - Songbird - таба, видео

Регистрация Запомнить меня
Войти через:  Facebook Google Twitter Vk Yandex Mail.ru

Josh Garrels - Songbird - таба, видео

Печатать
Просмотров: 79
Feel free to email me with any questions: jonyoyoman@gmail.com


Capo: None


Riff 1:

E|---------------------------------------------------------------------------------------------------|
B|---------------------------------------------------------------------------------------------------|
G|--------0-----------0-----------0-----------0-------------0-----------0----------0------------0----|
D|--------0-----------0-----------0-----------0-------------0-----------0--------------------4-------|
A|-----2-----------2-----------0-----------0-----------0h2-----------2-----2--3--------3--3--------3-|
E|--0--------0--0--------0--2--------2--2--------2--3----------3--3----------------------------------|


E|---------------------------------------------------------------------------------------------------|
B|--------------------------------1-----------1-------------0-----------0-----------0-----------0----|
G|--------0-----------0-----------2-----------2-------------0-----------0-----------0-----------0----|
D|--------0-----------0--------2-----------2-----------0h2-----------2-----------2-----------2-------|
A|-----2-----------2-----2--0--------0--0--------0--3----------3--3--------3--3--------3--0--------0-|
E|--0--------0--0------------------------------------------------------------------------------------|



Riff 2:

E|--------------------------------------------------------------------|
B|--------3-----------3-----------3------------------------------1----|
G|--------0-----------0-----------0----------0-------0-----------2----|
D|--------0-----------0--------2--------0h2-----0h2-----0-----2-------|
A|-----2-----------2-----2--3--------3---------------------0--------0-|
E|--3--------3--3-----------------------------------------------------|

-------------------------------0-----|
-------1-----------3-----------3-----|
-------2-----------0-----------0-----|
----2-----------2-----------2--------|
-0--------0--3--------3--3--------3--|
-------------------------------------|




Verses: Riff 1

Sweet songbird singing in the morning hour
Waking me up to tell me how
Another day passes along
I love that simple song that reminds me I'm getting closer to you

And every time thoughts tumble down
My mind is unwound
So much to say
Maybe on another day, when these words will come out right

A lesson in love is the hardest thing
You and I will ever learn
Because our hearts are so shy

And I think of you everyday
And in the night I pray
That you're safe from harm

We're walkin' on a thin string
But I know that the Lord's got the whole thing in His hands
We're strangers in this land
But together we could make our way home

But together we could make our way home
Make our way home, Sarnwen

Chorus: Riff 2

The fire passed me by
The earthquake shakin' the mountain
And I let em' go

When love had left me dry
Your quiet voice broke through
To water my soul now

Oh sweet thing, she's comin' around my way
Oh sweet love, what else can I say

Today
Добавлено: 13.09.2013
Другие материалы по этой песне:
  • Аккорды и текст

Страница создана 13.09.2013
http://primanota.ru/josh-garrels/songbird-chords.htm
Привет, Гость.
Предлагаем пройти революционный курс по гитаре.
Подарок от PrimaNota.Ru, забирай!